  0
SECTION
  2
HEADER
  9
$ACADVER
  1
AC1015
  9
$ACADMAINTVER
 70
     6
  9
$DWGCODEPAGE
  3
ANSI_1254
  9
$INSBASE
 10
0.0
 20
0.0
 30
0.0
  9
$EXTMIN
 10
0.0
 20
0.0
 30
0.0
  9
$EXTMAX
 10
279.4
 20
215.9
 30
0.0
  9
$LIMMIN
 10
0.0
 20
0.0
  9
$LIMMAX
 10
279.4
 20
215.9
  9
$ORTHOMODE
 70
     0
  9
$REGENMODE
 70
     1
  9
$FILLMODE
 70
     1
  9
$QTEXTMODE
 70
     0
  9
$MIRRTEXT
 70
     1
  9
$LTSCALE
 40
1.0
  9
$ATTMODE
 70
     1
  9
$TEXTSIZE
 40
3.5
  9
$TRACEWID
 40
1.0
  9
$TEXTSTYLE
  7
Standard
  9
$CLAYER
  8
0
  9
$CELTYPE
  6
ByLayer
  9
$CECOLOR
 62
   256
  9
$CELTSCALE
 40
1.0
  9
$DISPSILH
 70
     0
  9
$DIMSCALE
 40
1.0
  9
$DIMASZ
 40
3.5
  9
$DIMEXO
 40
1.0
  9
$DIMDLI
 40
3.75
  9
$DIMRND
 40
0.0
  9
$DIMDLE
 40
0.0
  9
$DIMEXE
 40
1.0
  9
$DIMTP
 40
0.0
  9
$DIMTM
 40
0.0
  9
$DIMTXT
 40
3.5
  9
$DIMCEN
 40
2.5
  9
$DIMTSZ
 40
0.0
  9
$DIMTOL
 70
     0
  9
$DIMLIM
 70
     0
  9
$DIMTIH
 70
     1
  9
$DIMTOH
 70
     1
  9
$DIMSE1
 70
     0
  9
$DIMSE2
 70
     0
  9
$DIMTAD
 70
     1
  9
$DIMZIN
 70
     0
  9
$DIMBLK
  1

  9
$DIMASO
 70
     1
  9
$DIMSHO
 70
     1
  9
$DIMPOST
  1

  9
$DIMAPOST
  1

  9
$DIMALT
 70
     0
  9
$DIMALTD
 70
     3
  9
$DIMALTF
 40
0.0393700787
  9
$DIMLFAC
 40
1.0
  9
$DIMTOFL
 70
     1
  9
$DIMTVP
 40
0.0
  9
$DIMTIX
 70
     0
  9
$DIMSOXD
 70
     0
  9
$DIMSAH
 70
     0
  9
$DIMBLK1
  1

  9
$DIMBLK2
  1

  9
$DIMSTYLE
  2
ISO-25
  9
$DIMCLRD
 70
     0
  9
$DIMCLRE
 70
     0
  9
$DIMCLRT
 70
     0
  9
$DIMTFAC
 40
1.0
  9
$DIMGAP
 40
1.524
  9
$DIMJUST
 70
     0
  9
$DIMSD1
 70
     0
  9
$DIMSD2
 70
     0
  9
$DIMTOLJ
 70
     0
  9
$DIMTZIN
 70
     0
  9
$DIMALTZ
 70
     0
  9
$DIMALTTZ
 70
     0
  9
$DIMUPT
 70
     0
  9
$DIMDEC
 70
     2
  9
$DIMTDEC
 70
     2
  9
$DIMALTU
 70
     2
  9
$DIMALTTD
 70
     3
  9
$DIMTXSTY
  7
Standard
  9
$DIMAUNIT
 70
     0
  9
$DIMADEC
 70
     2
  9
$DIMALTRND
 40
0.0
  9
$DIMAZIN
 70
     0
  9
$DIMDSEP
 70
    44
  9
$DIMATFIT
 70
     3
  9
$DIMFRAC
 70
     0
  9
$DIMLDRBLK
  1

  9
$DIMLUNIT
 70
     2
  9
$DIMLWD
 70
    -2
  9
$DIMLWE
 70
    -2
  9
$DIMTMOVE
 70
     0
  9
$LUNITS
 70
     2
  9
$LUPREC
 70
     2
  9
$SKETCHINC
 40
1.0
  9
$FILLETRAD
 40
10.0
  9
$AUNITS
 70
     0
  9
$AUPREC
 70
     2
  9
$MENU
  1
.
  9
$ELEVATION
 40
0.0
  9
$PELEVATION
 40
0.0
  9
$THICKNESS
 40
0.0
  9
$LIMCHECK
 70
     0
  9
$CHAMFERA
 40
0.0
  9
$CHAMFERB
 40
0.0
  9
$CHAMFERC
 40
0.0
  9
$CHAMFERD
 40
0.0
  9
$SKPOLY
 70
     0
  9
$TDCREATE
 40
2458985.71817309
  9
$TDUCREATE
 40
2458985.59317309
  9
$TDUPDATE
 40
2458985.71817338
  9
$TDUUPDATE
 40
2458985.59317338
  9
$TDINDWG
 40
0.0000000116
  9
$TDUSRTIMER
 40
0.0000000116
  9
$USRTIMER
 70
     1
  9
$ANGBASE
 50
0.0
  9
$ANGDIR
 70
     0
  9
$PDMODE
 70
     0
  9
$PDSIZE
 40
-1.0
  9
$PLINEWID
 40
0.0
  9
$SPLFRAME
 70
     0
  9
$SPLINETYPE
 70
     6
  9
$SPLINESEGS
 70
     8
  9
$HANDSEED
  5
E1
  9
$SURFTAB1
 70
     6
  9
$SURFTAB2
 70
     6
  9
$SURFTYPE
 70
     6
  9
$SURFU
 70
     6
  9
$SURFV
 70
     6
  9
$UCSBASE
  2

  9
$UCSNAME
  2

  9
$UCSORG
 10
0.0
 20
0.0
 30
0.0
  9
$UCSXDIR
 10
1.0
 20
0.0
 30
0.0
  9
$UCSYDIR
 10
0.0
 20
1.0
 30
0.0
  9
$UCSORTHOREF
  2

  9
$UCSORTHOVIEW
 70
     0
  9
$UCSORGTOP
 10
0.0
 20
0.0
 30
0.0
  9
$UCSORGBOTTOM
 10
0.0
 20
0.0
 30
0.0
  9
$UCSORGLEFT
 10
0.0
 20
0.0
 30
0.0
  9
$UCSORGRIGHT
 10
0.0
 20
0.0
 30
0.0
  9
$UCSORGFRONT
 10
0.0
 20
0.0
 30
0.0
  9
$UCSORGBACK
 10
0.0
 20
0.0
 30
0.0
  9
$PUCSBASE
  2

  9
$PUCSNAME
  2

  9
$PUCSORG
 10
0.0
 20
0.0
 30
0.0
  9
$PUCSXDIR
 10
1.0
 20
0.0
 30
0.0
  9
$PUCSYDIR
 10
0.0
 20
1.0
 30
0.0
  9
$PUCSORTHOREF
  2

  9
$PUCSORTHOVIEW
 70
     0
  9
$PUCSORGTOP
 10
0.0
 20
0.0
 30
0.0
  9
$PUCSORGBOTTOM
 10
0.0
 20
0.0
 30
0.0
  9
$PUCSORGLEFT
 10
0.0
 20
0.0
 30
0.0
  9
$PUCSORGRIGHT
 10
0.0
 20
0.0
 30
0.0
  9
$PUCSORGFRONT
 10
0.0
 20
0.0
 30
0.0
  9
$PUCSORGBACK
 10
0.0
 20
0.0
 30
0.0
  9
$USERI1
 70
     0
  9
$USERI2
 70
     0
  9
$USERI3
 70
     0
  9
$USERI4
 70
     0
  9
$USERI5
 70
     0
  9
$USERR1
 40
0.0
  9
$USERR2
 40
0.0
  9
$USERR3
 40
0.0
  9
$USERR4
 40
0.0
  9
$USERR5
 40
0.0
  9
$WORLDVIEW
 70
     1
  9
$SHADEDGE
 70
     3
  9
$SHADEDIF
 70
    70
  9
$TILEMODE
 70
     1
  9
$MAXACTVP
 70
    64
  9
$PINSBASE
 10
0.0
 20
0.0
 30
0.0
  9
$PLIMCHECK
 70
     0
  9
$PEXTMIN
 10
1.0000000000E+20
 20
1.0000000000E+20
 30
1.0000000000E+20
  9
$PEXTMAX
 10
-1.0000000000E+20
 20
-1.0000000000E+20
 30
-1.0000000000E+20
  9
$PLIMMIN
 10
0.0
 20
0.0
  9
$PLIMMAX
 10
420.0
 20
297.0
  9
$UNITMODE
 70
     0
  9
$VISRETAIN
 70
     1
  9
$PLINEGEN
 70
     0
  9
$PSLTSCALE
 70
     1
  9
$TREEDEPTH
 70
  3020
  9
$CMLSTYLE
  2
Standard
  9
$CMLJUST
 70
     0
  9
$CMLSCALE
 40
20.0
  9
$PROXYGRAPHICS
 70
     1
  9
$MEASUREMENT
 70
     1
  9
$CELWEIGHT
370
    -1
  9
$ENDCAPS
280
     0
  9
$JOINSTYLE
280
     0
  9
$LWDISPLAY
290
     1
  9
$INSUNITS
 70
     4
  9
$HYPERLINKBASE
  1

  9
$STYLESHEET
  1

  9
$XEDIT
290
     1
  9
$CEPSNTYPE
380
     0
  9
$PSTYLEMODE
290
     1
  9
$FINGERPRINTGUID
  2
{50ac8bb1-3f97-430d-86bb-96c6f49ec2cc}
  9
$VERSIONGUID
  2
{FAEB1C32-E019-11D5-929B-00C0DF256EC4}
  9
$EXTNAMES
290
     1
  9
$PSVPSCALE
 40
0.0
  9
$OLESTARTUP
290
     0
  0
ENDSEC
  0
SECTION
  2
CLASSES
  0
CLASS
  1
ACDBDICTIONARYWDFLT
  2
AcDbDictionaryWithDefault
  3
ObjectDBX Classes
 90
        0
280
     0
281
     0
  0
CLASS
  1
VISUALSTYLE
  2
AcDbVisualStyle
  3
ObjectDBX Classes
 90
     4095
280
     0
281
     0
  0
CLASS
  1
MATERIAL
  2
AcDbMaterial
  3
ObjectDBX Classes
 90
     1153
280
     0
281
     0
  0
CLASS
  1
SCALE
  2
AcDbScale
  3
ObjectDBX Classes
 90
     1153
280
     0
281
     0
  0
CLASS
  1
TABLESTYLE
  2
AcDbTableStyle
  3
ObjectDBX Classes
 90
     4095
280
     0
281
     0
  0
CLASS
  1
MLEADERSTYLE
  2
AcDbMLeaderStyle
  3
ACDB_MLEADERSTYLE_CLASS
 90
     4095
280
     0
281
     0
  0
CLASS
  1
SUN
  2
AcDbSun
  3
SCENEOE
 90
     1153
280
     0
281
     0
  0
CLASS
  1
ACDBPLACEHOLDER
  2
AcDbPlaceHolder
  3
ObjectDBX Classes
 90
        0
280
     0
281
     0
  0
CLASS
  1
LAYOUT
  2
AcDbLayout
  3
ObjectDBX Classes
 90
        0
280
     0
281
     0
  0
ENDSEC
  0
SECTION
  2
TABLES
  0
TABLE
  2
VPORT
  5
8
330
0
100
AcDbSymbolTable
 70
     1
  0
VPORT
  5
29
330
8
100
AcDbSymbolTableRecord
100
AcDbViewportTableRecord
  2
*Active
 70
     0
 10
0.0
 20
0.0
 11
1.0
 21
1.0
 12
139.7
 22
107.95
 13
0.0
 23
0.0
 14
10.0
 24
10.0
 15
10.0
 25
10.0
 16
0.0
 26
0.0
 36
1.0
 17
0.0
 27
0.0
 37
0.0
 40
215.9
 41
1.2941176471
 42
50.0
 43
0.0
 44
0.0
 50
0.0
 51
0.0
 71
     0
 72
  2000
 73
     1
 74
     3
 75
     0
 76
     0
 77
     0
 78
     0
281
     0
 65
     1
110
0.0
120
0.0
130
0.0
111
1.0
121
0.0
131
0.0
112
0.0
122
1.0
132
0.0
 79
     0
146
0.0
  0
ENDTAB
  0
TABLE
  2
LTYPE
  5
5
330
0
100
AcDbSymbolTable
 70
     6
  0
LTYPE
  5
14
330
5
100
AcDbSymbolTableRecord
100
AcDbLinetypeTableRecord
  2
ByBlock
 70
     0
  3

 72
    65
 73
     0
 40
0.0
  0
LTYPE
  5
15
330
5
100
AcDbSymbolTableRecord
100
AcDbLinetypeTableRecord
  2
ByLayer
 70
     0
  3

 72
    65
 73
     0
 40
0.0
  0
LTYPE
  5
16
330
5
100
AcDbSymbolTableRecord
100
AcDbLinetypeTableRecord
  2
Continuous
 70
     0
  3
Solid line
 72
    65
 73
     0
 40
0.0
  0
LTYPE
  5
6E
330
5
100
AcDbSymbolTableRecord
100
AcDbLinetypeTableRecord
  2
HIDDEN
 70
     0
  3
Hidden __ __ __ __ __ __ __ __ __ __ __ __ __ __
 72
    65
 73
     2
 40
1.905
 49
1.27
 74
     0
 49
-0.635
 74
     0
  0
LTYPE
  5
6F
330
5
100
AcDbSymbolTableRecord
100
AcDbLinetypeTableRecord
  2
PHANTOM
 70
     0
  3
Phantom ______  __  __  ______  __  __  ______
 72
    65
 73
     6
 40
12.7
 49
6.35
 74
     0
 49
-1.27
 74
     0
 49
1.27
 74
     0
 49
-1.27
 74
     0
 49
1.27
 74
     0
 49
-1.27
 74
     0
  0
LTYPE
  5
70
330
5
100
AcDbSymbolTableRecord
100
AcDbLinetypeTableRecord
  2
CENTER
 70
     0
  3
Center ____ _ ____ _ ____ _ ____ _ ____ _ ____
 72
    65
 73
     4
 40
10.16
 49
6.35
 74
     0
 49
-1.27
 74
     0
 49
1.27
 74
     0
 49
-1.27
 74
     0
  0
LTYPE
  5
71
330
5
100
AcDbSymbolTableRecord
100
AcDbLinetypeTableRecord
  2
CENTERX2
 70
     0
  3
Center (2x) ________  __  ________  __  _____
 72
    65
 73
     4
 40
20.32
 49
12.7
 74
     0
 49
-2.54
 74
     0
 49
2.54
 74
     0
 49
-2.54
 74
     0
  0
LTYPE
  5
72
330
5
100
AcDbSymbolTableRecord
100
AcDbLinetypeTableRecord
  2
DOT2
 70
     0
  3
Dot (.5x) ........................................
 72
    65
 73
     2
 40
0.635
 49
0.0
 74
     0
 49
-0.635
 74
     0
  0
ENDTAB
  0
TABLE
  2
LAYER
  5
2
330
0
100
AcDbSymbolTable
 70
    17
  0
LAYER
  5
10
330
2
100
AcDbSymbolTableRecord
100
AcDbLayerTableRecord
  2
0
 70
     0
 62
     7
  6
Continuous
370
    -3
390
F
  0
LAYER
  5
73
330
2
100
AcDbSymbolTableRecord
100
AcDbLayerTableRecord
  2
FORMAT
 70
     0
 62
     7
  6
Continuous
370
    -3
390
F
  0
LAYER
  5
74
330
2
100
AcDbSymbolTableRecord
100
AcDbLayerTableRecord
  2
YARDIMCI_GEOMETRI
 70
     0
 62
    -6
  6
Continuous
290
     0
370
    -3
390
F
  0
LAYER
  5
75
330
2
100
AcDbSymbolTableRecord
100
AcDbLayerTableRecord
  2
SAYFA_CERCEVESI
 70
     0
 62
     7
  6
Continuous
370
    25
390
F
  0
LAYER
  5
76
330
2
100
AcDbSymbolTableRecord
100
AcDbLayerTableRecord
  2
ANTET
 70
     0
 62
     7
  6
Continuous
370
    -3
390
F
  0
LAYER
  5
77
330
2
100
AcDbSymbolTableRecord
100
AcDbLayerTableRecord
  2
OLCU
 70
     0
 62
   150
  6
Continuous
370
    -3
390
F
  0
LAYER
  5
78
330
2
100
AcDbSymbolTableRecord
100
AcDbLayerTableRecord
  2
METIN
 70
     0
 62
    96
  6
Continuous
370
    -3
390
F
  0
LAYER
  5
79
330
2
100
AcDbSymbolTableRecord
100
AcDbLayerTableRecord
  2
BALON
 70
     0
 62
     5
  6
Continuous
370
    -3
390
F
  0
LAYER
  5
7A
330
2
100
AcDbSymbolTableRecord
100
AcDbLayerTableRecord
  2
VURGU
 70
     0
 62
     7
  6
Continuous
370
    -3
390
F
  0
LAYER
  5
7B
330
2
100
AcDbSymbolTableRecord
100
AcDbLayerTableRecord
  2
SILIK
 70
     0
 62
     7
  6
Continuous
370
    -3
390
F
  0
LAYER
  5
7C
330
2
100
AcDbSymbolTableRecord
100
AcDbLayerTableRecord
  2
MODEL
 70
     0
 62
     7
  6
Continuous
370
    -3
390
F
  0
LAYER
  5
7D
330
2
100
AcDbSymbolTableRecord
100
AcDbLayerTableRecord
  2
DETAYLANDıRMA
 70
     0
 62
   190
  6
Continuous
370
    -3
390
F
  0
LAYER
  5
7E
330
2
100
AcDbSymbolTableRecord
100
AcDbLayerTableRecord
  2
TOLERANS
 70
     0
 62
   230
  6
Continuous
370
    -3
390
F
  0
LAYER
  5
7F
330
2
100
AcDbSymbolTableRecord
100
AcDbLayerTableRecord
  2
MERKEZ_CIZGILERI
 70
     0
 62
    30
  6
Continuous
370
    -3
390
F
  0
LAYER
  5
80
330
2
100
AcDbSymbolTableRecord
100
AcDbLayerTableRecord
  2
KESIT-DETAY_CIZGILERI
 70
     0
 62
     7
  6
Continuous
370
    -3
390
F
  0
LAYER
  5
81
330
2
100
AcDbSymbolTableRecord
100
AcDbLayerTableRecord
  2
\U+041E\U+0421\U+0415\U+0412\U+042B\U+0415
 70
     0
 62
     7
  6
Continuous
370
    -3
390
F
  0
LAYER
  5
82
330
2
100
AcDbSymbolTableRecord
100
AcDbLayerTableRecord
  2
\U+0412\U+041E\U+0414\U+042F\U+041D\U+042B\U+0415_\U+0417\U+041D\U+0410\U+041A\U+0418
 70
     0
 62
    11
  6
Continuous
370
    -3
390
F
  0
ENDTAB
  0
TABLE
  2
STYLE
  5
3
330
0
100
AcDbSymbolTable
 70
     1
  0
STYLE
  5
11
330
3
100
AcDbSymbolTableRecord
100
AcDbTextStyleTableRecord
  2
Standard
 70
     0
 40
0.0
 41
1.0
 50
0.0
 71
     0
 42
3.5
  3
txt
  4

  0
ENDTAB
  0
TABLE
  2
VIEW
  5
6
330
0
100
AcDbSymbolTable
 70
     0
  0
ENDTAB
  0
TABLE
  2
UCS
  5
7
330
0
100
AcDbSymbolTable
 70
     0
  0
ENDTAB
  0
TABLE
  2
APPID
  5
9
330
0
100
AcDbSymbolTable
 70
     1
  0
APPID
  5
12
330
9
100
AcDbSymbolTableRecord
100
AcDbRegAppTableRecord
  2
ACAD
 70
     0
  0
ENDTAB
  0
TABLE
  2
DIMSTYLE
  5
A
330
0
100
AcDbSymbolTable
 70
     1
100
AcDbDimStyleTable
  0
DIMSTYLE
105
27
330
A
100
AcDbSymbolTableRecord
100
AcDbDimStyleTableRecord
  2
ISO-25
 70
     0
 41
2.5
 42
0.625
 43
3.75
 44
1.25
 73
     0
 74
     0
 77
     1
 78
     8
140
2.5
141
2.5
143
0.0393700787
147
0.625
171
     3
172
     1
178
     0
271
     2
272
     2
274
     3
278
    44
283
     0
284
     8
340
11
  0
ENDTAB
  0
TABLE
  2
BLOCK_RECORD
  5
1
330
0
100
AcDbSymbolTable
 70
     3
  0
BLOCK_RECORD
  5
1F
330
1
100
AcDbSymbolTableRecord
100
AcDbBlockTableRecord
  2
*Model_Space
340
22
  0
BLOCK_RECORD
  5
1B
330
1
100
AcDbSymbolTableRecord
100
AcDbBlockTableRecord
  2
*Paper_Space
340
1E
  0
BLOCK_RECORD
  5
23
330
1
100
AcDbSymbolTableRecord
100
AcDbBlockTableRecord
  2
*Paper_Space0
340
26
  0
BLOCK_RECORD
  5
B1
330
1
100
AcDbSymbolTableRecord
100
AcDbBlockTableRecord
  2
SW_CENTERMARKSYMBOL_0
340
0
102
{BLKREFS
331
BC
102
}
  0
BLOCK_RECORD
  5
C7
330
1
100
AcDbSymbolTableRecord
100
AcDbBlockTableRecord
  2
SW_CENTERMARKSYMBOL_1
340
0
102
{BLKREFS
331
D2
102
}
  0
ENDTAB
  0
ENDSEC
  0
SECTION
  2
BLOCKS
  0
BLOCK
  5
20
330
1F
100
AcDbEntity
  8
0
100
AcDbBlockBegin
  2
*Model_Space
 70
     0
 10
0.0
 20
0.0
 30
0.0
  3
*Model_Space
  1

  0
ENDBLK
  5
21
330
1F
100
AcDbEntity
  8
0
100
AcDbBlockEnd
  0
BLOCK
  5
1C
330
1B
100
AcDbEntity
 67
     1
  8
0
100
AcDbBlockBegin
  2
*Paper_Space
 70
     0
 10
0.0
 20
0.0
 30
0.0
  3
*Paper_Space
  1

  0
ENDBLK
  5
1D
330
1B
100
AcDbEntity
 67
     1
  8
0
100
AcDbBlockEnd
  0
BLOCK
  5
24
330
23
100
AcDbEntity
  8
0
100
AcDbBlockBegin
  2
*Paper_Space0
 70
     0
 10
0.0
 20
0.0
 30
0.0
  3
*Paper_Space0
  1

  0
ENDBLK
  5
25
330
23
100
AcDbEntity
  8
0
100
AcDbBlockEnd
  0
BLOCK
  5
B2
330
B1
100
AcDbEntity
  8
0
100
AcDbBlockBegin
  2
SW_CENTERMARKSYMBOL_0
 70
     0
 10
0.0
 20
0.0
 30
0.0
  3
SW_CENTERMARKSYMBOL_0
  1

  0
LINE
  5
B4
330
B1
100
AcDbEntity
  8
FORMAT
 62
     0
100
AcDbLine
 10
0.0
 20
0.0
 30
0.0
 11
0.0
 21
2.5
 31
0.0
  0
LINE
  5
B5
330
B1
100
AcDbEntity
  8
FORMAT
 62
     0
100
AcDbLine
 10
0.0
 20
0.0
 30
0.0
 11
-2.5
 21
0.0
 31
0.0
  0
LINE
  5
B6
330
B1
100
AcDbEntity
  8
FORMAT
 62
     0
100
AcDbLine
 10
0.0
 20
0.0
 30
0.0
 11
0.0
 21
-2.5
 31
0.0
  0
LINE
  5
B7
330
B1
100
AcDbEntity
  8
FORMAT
 62
     0
100
AcDbLine
 10
0.0
 20
0.0
 30
0.0
 11
2.5
 21
0.0
 31
0.0
  0
LINE
  5
B8
330
B1
100
AcDbEntity
  8
FORMAT
 62
     0
100
AcDbLine
 10
0.0
 20
5.0
 30
0.0
 11
0.0
 21
92.5
 31
0.0
  0
LINE
  5
B9
330
B1
100
AcDbEntity
  8
FORMAT
 62
     0
100
AcDbLine
 10
-5.0
 20
0.0
 30
0.0
 11
-92.5
 21
0.0
 31
0.0
  0
LINE
  5
BA
330
B1
100
AcDbEntity
  8
FORMAT
 62
     0
100
AcDbLine
 10
0.0
 20
-5.0
 30
0.0
 11
0.0
 21
-92.5
 31
0.0
  0
LINE
  5
BB
330
B1
100
AcDbEntity
  8
FORMAT
 62
     0
100
AcDbLine
 10
5.0
 20
0.0
 30
0.0
 11
92.5
 21
0.0
 31
0.0
  0
ENDBLK
  5
B3
330
B1
100
AcDbEntity
  8
0
100
AcDbBlockEnd
  0
BLOCK
  5
C8
330
C7
100
AcDbEntity
  8
0
100
AcDbBlockBegin
  2
SW_CENTERMARKSYMBOL_1
 70
     0
 10
0.0
 20
0.0
 30
0.0
  3
SW_CENTERMARKSYMBOL_1
  1

  0
LINE
  5
CA
330
C7
100
AcDbEntity
  8
FORMAT
 62
     0
100
AcDbLine
 10
0.0
 20
0.0
 30
0.0
 11
0.0
 21
2.5
 31
0.0
  0
LINE
  5
CB
330
C7
100
AcDbEntity
  8
FORMAT
 62
     0
100
AcDbLine
 10
0.0
 20
0.0
 30
0.0
 11
-2.5
 21
0.0
 31
0.0
  0
LINE
  5
CC
330
C7
100
AcDbEntity
  8
FORMAT
 62
     0
100
AcDbLine
 10
0.0
 20
0.0
 30
0.0
 11
0.0
 21
-2.5
 31
0.0
  0
LINE
  5
CD
330
C7
100
AcDbEntity
  8
FORMAT
 62
     0
100
AcDbLine
 10
0.0
 20
0.0
 30
0.0
 11
2.5
 21
0.0
 31
0.0
  0
LINE
  5
CE
330
C7
100
AcDbEntity
  8
FORMAT
 62
     0
100
AcDbLine
 10
0.0
 20
5.0
 30
0.0
 11
0.0
 21
92.5
 31
0.0
  0
LINE
  5
CF
330
C7
100
AcDbEntity
  8
FORMAT
 62
     0
100
AcDbLine
 10
-5.0
 20
0.0
 30
0.0
 11
-92.5
 21
0.0
 31
0.0
  0
LINE
  5
D0
330
C7
100
AcDbEntity
  8
FORMAT
 62
     0
100
AcDbLine
 10
0.0
 20
-5.0
 30
0.0
 11
0.0
 21
-92.5
 31
0.0
  0
LINE
  5
D1
330
C7
100
AcDbEntity
  8
FORMAT
 62
     0
100
AcDbLine
 10
5.0
 20
0.0
 30
0.0
 11
92.5
 21
0.0
 31
0.0
  0
ENDBLK
  5
C9
330
C7
100
AcDbEntity
  8
0
100
AcDbBlockEnd
  0
ENDSEC
  0
SECTION
  2
ENTITIES
  0
LINE
  5
83
330
1F
100
AcDbEntity
  8
0
  6
Continuous
 62
     7
370
    25
100
AcDbLine
 10
31.6794885527
 20
94.8655787391
 30
0.0
 11
31.6794885527
 21
-35.8552005607
 31
0.0
  0
LINE
  5
84
330
1F
100
AcDbEntity
  8
0
  6
Continuous
 62
     7
370
    25
100
AcDbLine
 10
211.6794957053
 20
-35.8552005607
 30
0.0
 11
211.6794957053
 21
94.8655787391
 31
0.0
  0
ARC
  5
85
330
1F
100
AcDbEntity
  8
0
  6
Continuous
 62
     7
370
    25
100
AcDbCircle
 10
211.679492129
 20
94.8655788257
 30
0.0
 40
180.0
100
AcDbArc
 50
135.0
 51
180.0
  0
LINE
  5
86
330
1F
100
AcDbEntity
  8
0
  6
Continuous
 62
     7
370
    25
100
AcDbLine
 10
180.0398824941
 20
317.7844021005
 30
0.0
 11
84.4002699684
 21
222.1447858495
 31
0.0
  0
LINE
  5
87
330
1F
100
AcDbEntity
  8
0
  6
Continuous
 62
     7
370
    25
100
AcDbLine
 10
211.6794957053
 20
94.8655787391
 30
0.0
 11
307.3190970551
 21
190.50519499
 31
0.0
  0
LINE
  5
88
330
1F
100
AcDbEntity
  8
0
  6
Continuous
 62
     7
370
    25
100
AcDbLine
 10
121.679492129
 20
-35.8552005607
 30
0.0
 11
211.6794957053
 21
-35.8552005607
 31
0.0
  0
LINE
  5
89
330
1F
100
AcDbEntity
  8
0
  6
Continuous
 62
     7
370
    25
100
AcDbLine
 10
31.6794885527
 20
-35.8552005607
 30
0.0
 11
121.679492129
 21
-35.8552005607
 31
0.0
  0
LWPOLYLINE
  5
8A
330
1F
100
AcDbEntity
  8
0
  6
Continuous
 62
     7
370
    25
100
AcDbPolyline
 90
       27
 70
   128
 43
0.0
 10
243.6794934999
 20
254.1447910947
 10
247.5592119824
 20
250.2650651616
 10
251.4245135914
 20
246.3997933549
 10
255.2609814536
 20
242.5633105916
 10
259.0543849598
 20
238.7699219865
 10
262.7905829083
 20
235.033724038
 10
266.4556874167
 20
231.3686046285
 10
270.0360639226
 20
227.7882430238
 10
273.5183907877
 20
224.3059012574
 10
276.8897189032
 20
220.9345731419
 10
280.1374865901
 20
217.6868054551
 10
283.24965371
 20
214.5746383351
 10
286.2145973574
 20
211.6096946877
 10
289.0213204752
 20
208.8029715699
 10
291.6593624484
 20
206.1649295968
 10
294.1189183127
 20
203.7053737325
 10
296.3908238541
 20
201.433468191
 10
298.4666599165
 20
199.3576321286
 10
300.3386778962
 20
197.485614149
 10
301.9999189507
 20
195.8243730945
 10
303.4441990983
 20
194.3800929469
 10
304.6661539208
 20
193.1581381244
 10
305.6612385642
 20
192.163053481
 10
306.4257426392
 20
191.3985494059
 10
306.9568200242
 20
190.867472021
 10
307.2525037657
 20
190.5717882794
 10
307.3190970551
 20
190.50519499
  0
LWPOLYLINE
  5
8B
330
1F
100
AcDbEntity
  8
0
  6
Continuous
 62
     7
370
    25
100
AcDbPolyline
 90
       27
 70
   128
 43
0.0
 10
180.0398824941
 20
317.7844021005
 10
180.1064757835
 20
317.7178237122
 10
180.4021632504
 20
317.4221250695
 10
180.9332480859
 20
316.8910476846
 10
181.6977521609
 20
316.1265287083
 10
182.692833079
 20
315.1314589661
 10
183.9147879015
 20
313.9095041436
 10
185.3590754997
 20
312.4652239961
 10
187.0203091036
 20
310.8039829415
 10
188.8923270833
 20
308.9319500607
 10
190.9681556951
 20
306.8561288995
 10
193.2400686871
 20
304.5842084569
 10
195.6996245514
 20
302.1246525926
 10
198.3376665246
 20
299.4866106194
 10
201.1443896424
 20
296.6799173039
 10
204.1093407403
 20
293.7149438542
 10
207.2214929592
 20
290.6028065366
 10
210.4692755472
 20
287.3550090474
 10
213.8405962121
 20
283.9836809319
 10
217.3229230773
 20
280.5013689679
 10
220.9032995831
 20
276.9209775609
 10
224.5684040915
 20
273.2558879536
 10
228.30460204
 20
269.5196900052
 10
232.0979980957
 20
265.7263014001
 10
235.9344808589
 20
261.8898186368
 10
239.7997675668
 20
258.0245170277
 10
243.6794934999
 20
254.1447910947
  0
LINE
  5
8C
330
1F
100
AcDbEntity
  8
0
  6
Continuous
 62
     1
370
    25
100
AcDbLine
 10
31.6794885527
 20
94.8655787391
 30
0.0
 11
211.6794957053
 21
94.8655787391
 31
0.0
  0
LWPOLYLINE
  5
8D
330
1F
100
AcDbEntity
  8
0
  6
Continuous
 62
     1
370
    25
100
AcDbPolyline
 90
       54
 70
   128
 43
0.0
 10
84.4002699684
 20
222.1447858495
 10
84.4298711251
 20
222.1151921433
 10
84.6665052902
 20
221.8785617036
 10
85.1388907265
 20
221.4061650914
 10
85.8452728223
 20
220.6997904462
 10
86.783025248
 20
219.7620603722
 10
87.9486536812
 20
218.5964021367
 10
89.3378256094
 20
217.2072562856
 10
90.9453759175
 20
215.5996892136
 10
92.7653199266
 20
213.7797507924
 10
94.7908887844
 20
211.7541763467
 10
97.0145480912
 20
209.5305207652
 10
99.4280239772
 20
207.1170541924
 10
102.0223403554
 20
204.5227322263
 10
104.7878431361
 20
201.7572257203
 10
107.7142486553
 20
198.8308164758
 10
110.7906669583
 20
195.7543972415
 10
114.0056544188
 20
192.5394121093
 10
117.3472519237
 20
189.1978118104
 10
120.8030281793
 20
185.7420388144
 10
124.3601272087
 20
182.1849379224
 10
128.0053163152
 20
178.5397562665
 10
131.725035442
 20
174.8200390023
 10
135.5054469984
 20
171.0396293086
 10
139.3324880134
 20
167.2125789803
 10
143.1919204276
 20
163.3531484288
 10
147.0693869721
 20
159.4756874722
 10
150.9504633229
 20
155.5946055335
 10
154.8207139801
 20
151.7243567389
 10
158.665738834
 20
147.8793356103
 10
162.4712346326
 20
144.0738323611
 10
166.2230452727
 20
140.3220328969
 10
169.9072120916
 20
136.6378549022
 10
173.5100334715
 20
133.0350372475
 10
177.0181020926
 20
129.526976077
 10
180.4183682632
 20
126.1266950053
 10
183.6981883477
 20
122.8468898219
 10
186.8453545701
 20
119.6997198743
 10
189.848162068
 20
116.6969123763
 10
192.6954386961
 20
113.8496282977
 10
195.3765971791
 20
111.1684772652
 10
197.8816611897
 20
108.6634132546
 10
200.2013100516
 20
106.3437643927
 10
202.3269085418
 20
104.2181584519
 10
204.250559045
 20
102.2945079488
 10
205.9651015531
 20
100.5799654406
 10
207.4641658198
 20
99.0809086245
 10
208.742156459
 20
97.8029105348
 10
209.7943349015
 20
96.7507395429
 10
210.6167895924
 20
95.9282848519
 10
211.206443442
 20
95.3386310023
 10
211.5611208807
 20
94.9839535636
 10
211.6794957053
 20
94.8655787391
 10
211.6794957053
 20
94.8655787391
  0
LINE
  5
8E
330
1F
100
AcDbEntity
  8
0
  6
Continuous
 62
     7
370
    25
100
AcDbLine
 10
-251.8893984283
 20
254.1447910947
 30
0.0
 11
-251.8893984283
 21
158.5051897448
 31
0.0
  0
LINE
  5
8F
330
1F
100
AcDbEntity
  8
0
  6
Continuous
 62
     7
370
    25
100
AcDbLine
 10
-71.8893912757
 20
158.5051897448
 30
0.0
 11
-71.8893912757
 21
254.1447910947
 31
0.0
  0
LINE
  5
90
330
1F
100
AcDbEntity
  8
0
  6
Continuous
 62
     7
370
    25
100
AcDbLine
 10
-251.8893984283
 20
158.5051897448
 30
0.0
 11
-251.8893984283
 21
94.8655787391
 31
0.0
  0
LINE
  5
91
330
1F
100
AcDbEntity
  8
0
  6
Continuous
 62
     7
370
    25
100
AcDbLine
 10
-71.8893912757
 20
94.8655787391
 30
0.0
 11
-71.8893912757
 21
158.5051897448
 31
0.0
  0
LINE
  5
92
330
1F
100
AcDbEntity
  8
0
  6
Continuous
 62
     7
370
    25
100
AcDbLine
 10
-251.8893984283
 20
94.8655787391
 30
0.0
 11
-251.8893984283
 21
-35.8552005607
 31
0.0
  0
LINE
  5
93
330
1F
100
AcDbEntity
  8
0
  6
Continuous
 62
     7
370
    25
100
AcDbLine
 10
-71.8893912757
 20
-35.8552005607
 30
0.0
 11
-71.8893912757
 21
94.8655787391
 31
0.0
  0
LWPOLYLINE
  5
94
330
1F
100
AcDbEntity
  8
0
  6
Continuous
 62
     7
370
    25
100
AcDbPolyline
 90
      104
 70
   128
 43
0.0
 10
-251.8893984283
 20
254.1447910947
 10
-251.7219913328
 20
250.2650651616
 10
-251.2204033459
 20
246.3997933549
 10
-250.3865045631
 20
242.5633105916
 10
-249.2233869756
 20
238.7699219865
 10
-247.7353793705
 20
235.033724038
 10
-245.9280175293
 20
231.3686046285
 10
-243.8080293263
 20
227.7882430238
 10
-241.3832974756
 20
224.3059012574
 10
-238.6628446305
 20
220.9345731419
 10
-235.6567886794
 20
217.6868054551
 10
-232.3763129438
 20
214.5746383351
 10
-228.8336214746
 20
211.6096946877
 10
-225.0418943489
 20
208.8029715699
 10
-221.0152317906
 20
206.1649295968
 10
-216.7686206425
 20
203.7053737325
 10
-212.3178561354
 20
201.433468191
 10
-207.6794934595
 20
199.3576321286
 10
-202.8707881594
 20
197.485614149
 10
-197.9096290792
 20
195.8243730945
 10
-192.8144713069
 20
194.3800929469
 10
-187.6042709822
 20
193.1581381244
 10
-182.2984107906
 20
192.163053481
 10
-176.9166263888
 20
191.3985494059
 10
-171.4789402807
 20
190.867472021
 10
-166.0055798615
 20
190.5717882794
 10
-160.5169075677
 20
190.512585966
 10
-155.0333407844
 20
190.6901184005
 10
-149.575279201
 20
191.1036852282
 10
-144.1630275125
 20
191.751781432
 10
-138.8167181188
 20
192.6319930238
 10
-133.5562412763
 20
193.7410268468
 10
-128.4011659349
 20
195.0747701806
 10
-123.3706680263
 20
196.6282460374
 10
-118.483463409
 20
198.3957025689
 10
-113.7577277744
 20
200.3705385608
 10
-109.2110482181
 20
202.5454226416
 10
-104.8603375578
 20
204.912263481
 10
-100.7217747295
 20
207.4622395915
 10
-96.8107638085
 20
210.1858887357
 10
-93.1418446029
 20
213.0730632228
 10
-89.7286740268
 20
216.1130342168
 10
-86.5839478696
 20
219.2944917363
 10
-83.7193635428
 20
222.6055595559
 10
-81.1455679262
 20
226.0339889211
 10
-78.8721499169
 20
229.5669946355
 10
-76.907565924
 20
233.1914040727
 10
-75.2591175163
 20
236.8937763852
 10
-73.9329365218
 20
240.6603429002
 10
-72.9339626754
 20
244.4770369214
 10
-72.2659063662
 20
248.3297321481
 10
-71.9312560881
 20
252.2040340585
 10
-71.9312560881
 20
256.0855779332
 10
-72.2659063662
 20
259.9598798436
 10
-72.9339626754
 20
263.812545268
 10
-73.9329365218
 20
267.6292690915
 10
-75.2591175163
 20
271.3958058041
 10
-76.907565924
 20
275.0981781167
 10
-78.8721499169
 20
278.7226173562
 10
-81.1455679262
 20
282.2555932683
 10
-83.7193635428
 20
285.6840226334
 10
-86.5839478696
 20
288.9951202554
 10
-89.7286740268
 20
292.1765777749
 10
-93.1418446029
 20
295.2165338677
 10
-96.8107638085
 20
298.103723256
 10
-100.7217747295
 20
300.827357499
 10
-104.8603375578
 20
303.3773336095
 10
-109.2110482181
 20
305.7441744489
 10
-113.7577277744
 20
307.9190585297
 10
-118.483463409
 20
309.8939094228
 10
-123.3706680263
 20
311.6613659543
 10
-128.4011659349
 20
313.2148418111
 10
-133.5562412763
 20
314.5485851449
 10
-138.8167181188
 20
315.6576189679
 10
-144.1630275125
 20
316.5378007573
 10
-149.575279201
 20
317.1859118623
 10
-155.0333407844
 20
317.59947869
 10
-160.5169075677
 20
317.7770111245
 10
-166.0055798615
 20
317.7178237122
 10
-171.4789402807
 20
317.4221250695
 10
-176.9166263888
 20
316.8910476846
 10
-182.2984107906
 20
316.1265287083
 10
-187.6042709822
 20
315.1314589661
 10
-192.8144713069
 20
313.9095041436
 10
-197.9096290792
 20
312.4652239961
 10
-202.8707881594
 20
310.8039829415
 10
-207.6794934595
 20
308.9319500607
 10
-212.3178561354
 20
306.8561288995
 10
-216.7686206425
 20
304.5842084569
 10
-221.0152317906
 20
302.1246525926
 10
-225.0418943489
 20
299.4866106194
 10
-228.8336214746
 20
296.6799173039
 10
-232.3763129438
 20
293.7149438542
 10
-235.6567886794
 20
290.6028065366
 10
-238.6628446305
 20
287.3550090474
 10
-241.3832974756
 20
283.9836809319
 10
-243.8080293263
 20
280.5013689679
 10
-245.9280175293
 20
276.9209775609
 10
-247.7353793705
 20
273.2558879536
 10
-249.2233869756
 20
269.5196900052
 10
-250.3865045631
 20
265.7263014001
 10
-251.2204033459
 20
261.8898186368
 10
-251.7219913328
 20
258.0245170277
 10
-251.8893984283
 20
254.1447910947
  0
LWPOLYLINE
  5
95
330
1F
100
AcDbEntity
  8
0
  6
Continuous
 62
     7
370
    25
100
AcDbPolyline
 90
       94
 70
   128
 43
0.0
 10
-235.4893964851
 20
254.1447910947
 10
-235.3214827502
 20
257.6582166833
 10
-234.8185238565
 20
261.1556086224
 10
-233.9827996815
 20
264.6209928674
 10
-232.8181323731
 20
268.0385741872
 10
-231.3298267448
 20
271.3927957696
 10
-229.5246926272
 20
274.6682796162
 10
-227.4109480107
 20
277.8501543683
 10
-224.9982413972
 20
280.9238466901
 10
-222.2975847447
 20
283.8753494901
 10
-219.3213013137
 20
286.6911921185
 10
-216.0829660619
 20
289.3585595769
 10
-212.5973609412
 20
291.8652329129
 10
-208.8803854907
 20
294.1997978371
 10
-204.9490009571
 20
296.3516149205
 10
-200.8211446131
 20
298.3108493966
 10
-196.5156552518
 20
300.0685605687
 10
-192.052170741
 20
301.6167316121
 10
-187.4510609681
 20
302.9482993764
 10
-182.7333198065
 20
304.0571841878
 10
-177.9204719836
 20
304.9383196515
 10
-173.034479017
 20
305.5877122563
 10
-168.0976335095
 20
306.00238177
 10
-163.1324605454
 20
306.180420844
 10
-158.1616160596
 20
306.1210546178
 10
-153.2077809001
 20
305.82452151
 10
-148.2935567523
 20
305.2921924275
 10
-143.4413680012
 20
304.5264813584
 10
-138.673354047
 20
303.5309049767
 10
-134.0112687225
 20
302.3099932355
 10
-129.4763852978
 20
300.8692893666
 10
-125.0893940354
 20
299.2154094857
 10
-120.8703127826
 20
297.3558935803
 10
-116.8383938397
 20
295.2991757077
 10
-113.0120326901
 20
293.054703204
 10
-109.4086860443
 20
290.6326982659
 10
-106.0447973335
 20
288.0442175549
 10
-102.9357147539
 20
285.3010329884
 10
-100.0956242109
 20
282.4157211465
 10
-97.5374859894
 20
279.4013950509
 10
-95.2729639733
 20
276.2718233746
 10
-93.3124032939
 20
273.0413112325
 10
-91.6647446478
 20
269.7245809716
 10
-90.3375056708
 20
266.3367423695
 10
-89.3367362345
 20
262.8932926339
 10
-88.6670109952
 20
259.4099077863
 10
-88.3313846911
 20
255.9025022668
 10
-88.3313846911
 20
252.3870799226
 10
-88.6670109952
 20
248.8797042054
 10
-89.3367362345
 20
245.3963193578
 10
-90.3375056708
 20
241.9528696221
 10
-91.6647446478
 20
238.5650310201
 10
-93.3124032939
 20
235.2482709569
 10
-95.2729639733
 20
232.0177588147
 10
-97.5374859894
 20
228.8881871384
 10
-100.0956242109
 20
225.8738908452
 10
-102.9357147539
 20
222.9885492009
 10
-106.0447973335
 20
220.2453944367
 10
-109.4086860443
 20
217.6568839234
 10
-113.0120326901
 20
215.2348789853
 10
-116.8383938397
 20
212.9904064816
 10
-120.8703127826
 20
210.9337184113
 10
-125.0893940354
 20
209.0741876048
 10
-129.4763852978
 20
207.4203077239
 10
-134.0112687225
 20
205.9796187562
 10
-138.673354047
 20
204.7586921138
 10
-143.4413680012
 20
203.7631008309
 10
-148.2935567523
 20
202.997404663
 10
-153.2077809001
 20
202.4650606793
 10
-158.1616160596
 20
202.1685424727
 10
-163.1324605454
 20
202.1091613454
 10
-168.0976335095
 20
202.2872153205
 10
-173.034479017
 20
202.7018848342
 10
-177.9204719836
 20
203.351277439
 10
-182.7333198065
 20
204.2324278039
 10
-187.4510609681
 20
205.3413126153
 10
-192.052170741
 20
206.6728803796
 10
-196.5156552518
 20
208.221051423
 10
-200.8211446131
 20
209.9787625951
 10
-204.9490009571
 20
211.93798217
 10
-208.8803854907
 20
214.0897992534
 10
-212.5973609412
 20
216.4243790788
 10
-216.0829660619
 20
218.9310524148
 10
-219.3213013137
 20
221.5983900708
 10
-222.2975847447
 20
224.4142625016
 10
-224.9982413972
 20
227.3657653016
 10
-227.4109480107
 20
230.4394576234
 10
-229.5246926272
 20
233.6213025731
 10
-231.3298267448
 20
236.8968162221
 10
-232.8181323731
 20
240.2510080022
 10
-233.9827996815
 20
243.6686191243
 10
-234.8185238565
 20
247.1340033692
 10
-235.3214827502
 20
250.6313953084
 10
-235.4893964851
 20
254.1447910947
  0
LINE
  5
96
330
1F
100
AcDbEntity
  8
0
  6
Continuous
 62
     7
370
    25
100
AcDbLine
 10
-251.8893984283
 20
-35.8552005607
 30
0.0
 11
-71.8893912757
 21
-35.8552005607
 31
0.0
  0
LWPOLYLINE
  5
97
330
1F
100
AcDbEntity
  8
0
  6
Continuous
 62
     1
370
    25
100
AcDbPolyline
 90
       27
 70
   128
 43
0.0
 10
-161.889394852
 20
94.8655787391
 10
-156.4026373575
 20
94.9839535636
 10
-150.9362907285
 20
95.3386310023
 10
-145.5106903935
 20
95.9282848519
 10
-140.1460209066
 20
96.7507395429
 10
-134.8622367853
 20
97.8029105348
 10
-129.6789963866
 20
99.0809086245
 10
-124.6155818129
 20
100.5799654406
 10
-119.6908262694
 20
102.2945079488
 10
-114.9230507339
 20
104.2181584519
 10
-110.3299950386
 20
106.3437643927
 10
-105.9287433649
 20
108.6634132546
 10
-101.7356720889
 20
111.1684772652
 10
-97.7663752759
 20
113.8496282977
 10
-94.0356162513
 20
116.6969123763
 10
-90.5572828973
 20
119.6997198743
 10
-87.3443019713
 20
122.8468898219
 10
-84.4086391056
 20
126.1266950053
 10
-81.7612094009
 20
129.526976077
 10
-79.4118625248
 20
133.0350372475
 10
-77.3693380082
 20
136.6378549022
 10
-75.6412354434
 20
140.3220328969
 10
-74.2339772308
 20
144.0738323611
 10
-73.1528085793
 20
147.8793356103
 10
-72.401737901
 20
151.7243567389
 10
-71.983574065
 20
155.5946055335
 10
-71.8893912757
 20
158.5051897448
  0
LWPOLYLINE
  5
98
330
1F
100
AcDbEntity
  8
0
  6
Continuous
 62
     1
370
    25
100
AcDbPolyline
 90
       27
 70
   128
 43
0.0
 10
-251.8893984283
 20
158.5051897448
 10
-251.7952156389
 20
155.5946055335
 10
-251.3770518029
 20
151.7243567389
 10
-250.6259811247
 20
147.8793356103
 10
-249.5448124731
 20
144.0738323611
 10
-248.1375542605
 20
140.3220328969
 10
-246.4094516957
 20
136.6378549022
 10
-244.3669271792
 20
133.0350372475
 10
-242.017580303
 20
129.526976077
 10
-239.3701505983
 20
126.1266950053
 10
-236.4344877327
 20
122.8468898219
 10
-233.2215068067
 20
119.6997198743
 10
-229.7431734527
 20
116.6969123763
 10
-226.012414428
 20
113.8496282977
 10
-222.043117615
 20
111.1684772652
 10
-217.8500463391
 20
108.6634132546
 10
-213.4487946654
 20
106.3437643927
 10
-208.8557389701
 20
104.2181584519
 10
-204.0879634345
 20
102.2945079488
 10
-199.163207891
 20
100.5799654406
 10
-194.0997933174
 20
99.0809086245
 10
-188.9165529186
 20
97.8029105348
 10
-183.6327687973
 20
96.7507395429
 10
-178.2680993105
 20
95.9282848519
 10
-172.8424989755
 20
95.3386310023
 10
-167.3761523465
 20
94.9839535636
 10
-161.889394852
 20
94.8655787391
  0
ARC
  5
99
330
1F
100
AcDbEntity
  8
0
  6
Continuous
 62
     1
370
    25
100
AcDbCircle
 10
-161.889394852
 20
109.0699242662
 30
0.0
 40
101.4989746148992
100
AcDbArc
 50
73.372980855
 51
106.627019145
  0
LINE
  5
9A
330
1F
100
AcDbEntity
  8
0
  6
Continuous
 62
     1
370
    25
100
AcDbLine
 10
-161.889394852
 20
94.8655787391
 30
0.0
 11
-71.8893912757
 21
94.8655787391
 31
0.0
  0
LINE
  5
9B
330
1F
100
AcDbEntity
  8
0
  6
Continuous
 62
     1
370
    25
100
AcDbLine
 10
-251.8893984283
 20
94.8655787391
 30
0.0
 11
-161.889394852
 21
94.8655787391
 31
0.0
  0
LINE
  5
9C
330
1F
100
AcDbEntity
  8
0
  6
Continuous
 62
     7
370
    25
100
AcDbLine
 10
374.8088544846
 20
94.8655787391
 30
0.0
 11
374.8088544846
 21
-35.8552005607
 31
0.0
  0
LINE
  5
9D
330
1F
100
AcDbEntity
  8
0
  6
Continuous
 62
     7
370
    25
100
AcDbLine
 10
554.8088616371
 20
-35.8552005607
 30
0.0
 11
554.8088616371
 21
94.8655787391
 31
0.0
  0
LINE
  5
9E
330
1F
100
AcDbEntity
  8
0
  6
Continuous
 62
     7
370
    25
100
AcDbLine
 10
554.8088616371
 20
94.8655787391
 30
0.0
 11
554.8088616371
 21
158.5051897448
 31
0.0
  0
LINE
  5
9F
330
1F
100
AcDbEntity
  8
0
  6
Continuous
 62
     7
370
    25
100
AcDbLine
 10
374.8088544846
 20
158.5051897448
 30
0.0
 11
374.8088544846
 21
94.8655787391
 31
0.0
  0
LINE
  5
A0
330
1F
100
AcDbEntity
  8
0
  6
Continuous
 62
     7
370
    25
100
AcDbLine
 10
374.8088544846
 20
254.1447910947
 30
0.0
 11
374.8088544846
 21
158.5051897448
 31
0.0
  0
LINE
  5
A1
330
1F
100
AcDbEntity
  8
0
  6
Continuous
 62
     7
370
    25
100
AcDbLine
 10
554.8088616371
 20
158.5051897448
 30
0.0
 11
554.8088616371
 21
254.1447910947
 31
0.0
  0
LINE
  5
A2
330
1F
100
AcDbEntity
  8
0
  6
Continuous
 62
     7
370
    25
100
AcDbLine
 10
374.8088544846
 20
-35.8552005607
 30
0.0
 11
554.8088616371
 21
-35.8552005607
 31
0.0
  0
LWPOLYLINE
  5
A3
330
1F
100
AcDbEntity
  8
0
  6
Continuous
 62
     7
370
    25
100
AcDbPolyline
 90
       54
 70
   128
 43
0.0
 10
374.8088544846
 20
254.1447910947
 10
374.850719297
 20
256.0855779332
 10
375.185369575
 20
259.9598798436
 10
375.8534258843
 20
263.812545268
 10
376.8523997307
 20
267.6292690915
 10
378.1785807252
 20
271.3958058041
 10
379.8270291329
 20
275.0981781167
 10
381.7916131258
 20
278.7226173562
 10
384.0650311351
 20
282.2555932683
 10
386.6388267517
 20
285.6840226334
 10
389.5034110785
 20
288.9951202554
 10
392.6481372357
 20
292.1765777749
 10
396.0613078118
 20
295.2165338677
 10
399.7302270174
 20
298.103723256
 10
403.6412379384
 20
300.827357499
 10
407.7798007667
 20
303.3773336095
 10
412.130511427
 20
305.7441744489
 10
416.6771909833
 20
307.9190585297
 10
421.4029266179
 20
309.8939094228
 10
426.2901312351
 20
311.6613659543
 10
431.3206291437
 20
313.2148418111
 10
436.4757044852
 20
314.5485851449
 10
441.7361813277
 20
315.6576189679
 10
447.0824907214
 20
316.5378007573
 10
452.4947424099
 20
317.1859118623
 10
457.9528039933
 20
317.59947869
 10
463.4363707766
 20
317.7770111245
 10
468.9250430703
 20
317.7178237122
 10
474.3984034896
 20
317.4221250695
 10
479.8360895977
 20
316.8910476846
 10
485.2178739995
 20
316.1265287083
 10
490.5237341911
 20
315.1314589661
 10
495.7339345157
 20
313.9095041436
 10
500.829092288
 20
312.4652239961
 10
505.7902513683
 20
310.8039829415
 10
510.5989566684
 20
308.9319500607
 10
515.2373193443
 20
306.8561288995
 10
519.6880838514
 20
304.5842084569
 10
523.9346949995
 20
302.1246525926
 10
527.9613575578
 20
299.4866106194
 10
531.7530846834
 20
296.6799173039
 10
535.2957761526
 20
293.7149438542
 10
538.5762518883
 20
290.6028065366
 10
541.5823078394
 20
287.3550090474
 10
544.3027606845
 20
283.9836809319
 10
546.7274925351
 20
280.5013689679
 10
548.8474807382
 20
276.9209775609
 10
550.6548425794
 20
273.2558879536
 10
552.1428501845
 20
269.5196900052
 10
553.305967772
 20
265.7263014001
 10
554.1398665548
 20
261.8898186368
 10
554.6414545417
 20
258.0245170277
 10
554.8088616371
 20
254.1447910947
 10
554.8088616371
 20
254.1447910947
  0
LINE
  5
A4
330
1F
100
AcDbEntity
  8
0
  6
Continuous
 62
     1
370
    25
100
AcDbLine
 10
374.8088544846
 20
94.8655787391
 30
0.0
 11
554.8088616371
 21
94.8655787391
 31
0.0
  0
LWPOLYLINE
  5
A5
330
1F
100
AcDbEntity
  8
0
  6
Continuous
 62
     1
370
    25
100
AcDbPolyline
 90
       54
 70
   128
 43
0.0
 10
374.8088544846
 20
158.5051897448
 10
374.8193225503
 20
159.4756874722
 10
375.0703773141
 20
163.3531484288
 10
375.6552702427
 20
167.2125789803
 10
376.5718108654
 20
171.0396293086
 10
377.8166091681
 20
174.8200390023
 10
379.3850159884
 20
178.5397562665
 10
381.2712124229
 20
182.1849379224
 10
383.4681725741
 20
185.7420388144
 10
385.967723155
 20
189.1978118104
 10
388.7605658412
 20
192.5394121093
 10
391.8363145232
 20
195.7543972415
 10
395.1835251093
 20
198.8308164758
 10
398.7897551298
 20
201.7572257203
 10
402.641571188
 20
204.5227322263
 10
406.7246569932
 20
207.1170541924
 10
411.0238170862
 20
209.5305207652
 10
415.5230625212
 20
211.7541763467
 10
420.2056555689
 20
213.7797507924
 10
425.0541767717
 20
215.5996892136
 10
430.0505845487
 20
217.2072562856
 10
435.1762971521
 20
218.5964021367
 10
440.4122448206
 20
219.7620603722
 10
445.7389498741
 20
220.6997904462
 10
451.1365946993
 20
221.4061650914
 10
456.5851018444
 20
221.8785617036
 10
462.0642027032
 20
222.1151921433
 10
467.5535134185
 20
222.1151921433
 10
473.0326142773
 20
221.8785617036
 10
478.4811214224
 20
221.4061650914
 10
483.8787662477
 20
220.6997904462
 10
489.2054713011
 20
219.7620603722
 10
494.4414189697
 20
218.5964021367
 10
499.567131573
 20
217.2072562856
 10
504.5635393501
 20
215.5996892136
 10
509.4120605529
 20
213.7797507924
 10
514.0946536005
 20
211.7541763467
 10
518.5938990355
 20
209.5305207652
 10
522.8930591285
 20
207.1170541924
 10
526.9761449337
 20
204.5227322263
 10
530.8279609919
 20
201.7572257203
 10
534.4341910124
 20
198.8308164758
 10
537.7814015985
 20
195.7543972415
 10
540.8571502805
 20
192.5394121093
 10
543.6499929667
 20
189.1978118104
 10
546.1495435477
 20
185.7420388144
 10
548.3465036989
 20
182.1849379224
 10
550.2327001333
 20
178.5397562665
 10
551.8011069536
 20
174.8200390023
 10
553.0459052563
 20
171.0396293086
 10
553.962445879
 20
167.2125789803
 10
554.5473388076
 20
163.3531484288
 10
554.7983935714
 20
159.4756874722
 10
554.8088616371
 20
158.5051897448
  0
LINE
  5
A6
330
1F
100
AcDbEntity
  8
0
  6
Continuous
 62
     7
370
    25
100
AcDbLine
 10
243.6794934999
 20
573.9716844968
 30
0.0
 11
148.0398809742
 21
573.9716844968
 31
0.0
  0
LINE
  5
A7
330
1F
100
AcDbEntity
  8
0
  6
Continuous
 62
     7
370
    25
100
AcDbLine
 10
148.0398809742
 20
393.9716773443
 30
0.0
 11
243.6794934999
 21
393.9716773443
 31
0.0
  0
LINE
  5
A8
330
1F
100
AcDbEntity
  8
0
  6
Continuous
 62
     7
370
    25
100
AcDbLine
 10
148.0398809742
 20
573.9716844968
 30
0.0
 11
121.679492129
 21
573.9716844968
 31
0.0
  0
LINE
  5
A9
330
1F
100
AcDbEntity
  8
0
  6
Continuous
 62
     7
370
    25
100
AcDbLine
 10
121.679492129
 20
393.9716773443
 30
0.0
 11
148.0398809742
 21
393.9716773443
 31
0.0
  0
CIRCLE
  5
AA
330
1F
100
AcDbEntity
  8
0
  6
Continuous
 62
     7
370
    25
100
AcDbCircle
 10
121.679492129
 20
483.9716809206
 30
0.0
 40
73.59999999999997
  0
CIRCLE
  5
AB
330
1F
100
AcDbEntity
  8
0
  6
Continuous
 62
     7
370
    25
100
AcDbCircle
 10
121.679492129
 20
483.9716809206
 30
0.0
 40
90.00000000000006
  0
LWPOLYLINE
  5
AC
330
1F
100
AcDbEntity
  8
0
  6
Continuous
 62
     7
370
    25
100
AcDbPolyline
 90
       53
 70
   128
 43
0.0
 10
243.6794934999
 20
573.9716844968
 10
247.5592119824
 20
573.8042774014
 10
251.4245135914
 20
573.3026894145
 10
255.2609814536
 20
572.4687906317
 10
259.0543849598
 20
571.3056730442
 10
262.7905829083
 20
569.8176654391
 10
266.4556874167
 20
568.0103035979
 10
270.0360639226
 20
565.8903153948
 10
273.5183907877
 20
563.4655835442
 10
276.8897189032
 20
560.7451306991
 10
280.1374865901
 20
557.739074748
 10
283.24965371
 20
554.4585990123
 10
286.2145973574
 20
550.9159075431
 10
289.0213204752
 20
547.1241804175
 10
291.6593624484
 20
543.0975178592
 10
294.1189183127
 20
538.8509067111
 10
296.3908238541
 20
534.400142204
 10
298.4666599165
 20
529.7617795281
 10
300.3386778962
 20
524.953074228
 10
301.9999189507
 20
519.9919151477
 10
303.4441990983
 20
514.8967573754
 10
304.6661539208
 20
509.6865570508
 10
305.6612385642
 20
504.3806968592
 10
306.4257426392
 20
498.9989124574
 10
306.9568200242
 20
493.5612263493
 10
307.2525037657
 20
488.08786593
 10
307.3117060792
 20
482.5991936363
 10
307.1341736447
 20
477.1156268529
 10
306.7206068169
 20
471.6575652696
 10
306.0725106131
 20
466.2453135811
 10
305.1922990214
 20
460.8990041874
 10
304.0832651984
 20
455.6385273449
 10
302.7495218646
 20
450.4834520034
 10
301.1960460078
 20
445.4529540948
 10
299.4285894763
 20
440.5657494776
 10
297.4537534844
 20
435.840013843
 10
295.2788694035
 20
431.2933342866
 10
292.9120285641
 20
426.9426236264
 10
290.3620524537
 20
422.8040607981
 10
287.6384033095
 20
418.8930498771
 10
284.7512288224
 20
415.2241306715
 10
281.7112578284
 20
411.8109600954
 10
278.52981521
 20
408.6662339382
 10
275.2187175881
 20
405.8016496114
 10
271.7903031241
 20
403.2278539948
 10
268.2572974097
 20
400.9544359855
 10
264.6328730713
 20
398.9898519926
 10
260.9305007588
 20
397.3414035849
 10
257.163949145
 20
396.0152225904
 10
253.3472402226
 20
395.016248744
 10
249.4945598971
 20
394.3481924347
 10
245.6202579867
 20
394.0135421566
 10
243.6794934999
 20
393.9716773443
  0
ARC
  5
AD
330
1F
100
AcDbEntity
  8
0
  6
Continuous
 62
     7
370
    25
100
AcDbCircle
 10
294.8061301712
 20
483.9716809206
 30
0.0
 40
103.1720641809677
100
AcDbArc
 50
170.1808481037
 51
189.8191518963
  0
LWPOLYLINE
  5
AE
330
1F
100
AcDbEntity
  8
0
  6
Continuous
 62
     1
370
    25
100
AcDbPolyline
 90
       27
 70
   128
 43
0.0
 10
211.6794957053
 20
483.9716809206
 10
211.5611208807
 20
478.484923426
 10
211.206443442
 20
473.0185767971
 10
210.6167895924
 20
467.5929764621
 10
209.7943349015
 20
462.2283069752
 10
208.742156459
 20
456.9445228539
 10
207.4641658198
 20
451.7612824552
 10
205.9651015531
 20
446.6978678815
 10
204.250559045
 20
441.773112338
 10
202.3269085418
 20
437.0053368024
 10
200.2013100516
 20
432.4122811071
 10
197.8816611897
 20
428.0110294334
 10
195.3765971791
 20
423.8179581575
 10
192.6954386961
 20
419.8486613445
 10
189.848162068
 20
416.1179023199
 10
186.8453545701
 20
412.6395689659
 10
183.6981883477
 20
409.4265880398
 10
180.4183682632
 20
406.4909251742
 10
177.0181020926
 20
403.8434954695
 10
173.5100334715
 20
401.4941485934
 10
169.9072120916
 20
399.4516240768
 10
166.2230452727
 20
397.723521512
 10
162.4712346326
 20
396.3162632994
 10
158.665738834
 20
395.2350946478
 10
154.8207139801
 20
394.4840239696
 10
150.9504633229
 20
394.0658601336
 10
148.0398809742
 20
393.9716773443
  0
LWPOLYLINE
  5
AF
330
1F
100
AcDbEntity
  8
0
  6
Continuous
 62
     1
370
    25
100
AcDbPolyline
 90
       27
 70
   128
 43
0.0
 10
148.0398809742
 20
573.9716844968
 10
150.9504633229
 20
573.8775017075
 10
154.8207139801
 20
573.4593378715
 10
158.665738834
 20
572.7082671933
 10
162.4712346326
 20
571.6270985417
 10
166.2230452727
 20
570.2198403291
 10
169.9072120916
 20
568.4917377643
 10
173.5100334715
 20
566.4492132477
 10
177.0181020926
 20
564.0998663716
 10
180.4183682632
 20
561.4524366669
 10
183.6981883477
 20
558.5167738013
 10
186.8453545701
 20
555.3037928752
 10
189.848162068
 20
551.8254595212
 10
192.6954386961
 20
548.0947004966
 10
195.3765971791
 20
544.1254036836
 10
197.8816611897
 20
539.9323324077
 10
200.2013100516
 20
535.531080734
 10
202.3269085418
 20
530.9380250387
 10
204.250559045
 20
526.1702495031
 10
205.9651015531
 20
521.2454939596
 10
207.4641658198
 20
516.1820793859
 10
208.742156459
 20
510.9988389872
 10
209.7943349015
 20
505.7150548659
 10
210.6167895924
 20
500.350385379
 10
211.206443442
 20
494.924785044
 10
211.5611208807
 20
489.4584384151
 10
211.6794957053
 20
483.9716809206
  0
LWPOLYLINE
  5
B0
330
1F
100
AcDbEntity
  8
0
  6
Continuous
 62
     1
370
    25
100
AcDbPolyline
 90
       42
 70
   128
 43
0.0
 10
137.1210504528
 20
555.9336053543
 10
134.1460969504
 20
554.9004184417
 10
130.7918977197
 20
553.4121128134
 10
127.5163966436
 20
551.6069786958
 10
124.3345398195
 20
549.4932340793
 10
121.2608447328
 20
547.0805274658
 10
118.3093363158
 20
544.3798708133
 10
115.493481813
 20
541.4035873823
 10
112.8261283245
 20
538.1652521305
 10
110.3194475379
 20
534.6796470098
 10
107.9848770257
 20
530.9626715593
 10
105.8330683242
 20
527.0312870256
 10
103.8738394361
 20
522.9034306817
 10
102.116128264
 20
518.5979413204
 10
100.5679590832
 20
514.1344568096
 10
99.2363913189
 20
509.5333470367
 10
98.1275046449
 20
504.8156058751
 10
97.2463561427
 20
500.0027580522
 10
96.5969672631
 20
495.1167650856
 10
96.1822996121
 20
490.1799195781
 10
96.004245637
 20
485.214746614
 10
96.0636193137
 20
480.2439021282
 10
96.3601486962
 20
475.2900669686
 10
96.892481504
 20
470.3758428208
 10
97.6581869852
 20
465.5236540697
 10
98.6537726801
 20
460.7556401156
 10
99.8746974598
 20
456.093554791
 10
101.3153864275
 20
451.5586713664
 10
102.9692700337
 20
447.171680104
 10
104.8288008403
 20
442.9525988512
 10
106.8854935672
 20
438.9206799082
 10
109.1299642082
 20
435.0943187587
 10
111.5519719403
 20
431.4909721128
 10
114.1404652241
 20
428.1270834021
 10
116.8836339582
 20
425.0180008225
 10
119.768961749
 20
422.1779102795
 10
122.7832830716
 20
419.619772058
 10
125.9128445033
 20
417.3552500419
 10
129.1433664243
 20
415.3946893625
 10
132.4601087924
 20
413.7470307164
 10
135.8479390126
 20
412.4197917394
 10
137.1210504528
 20
412.0097564868
  0
INSERT
  5
BC
330
1F
100
AcDbEntity
  8
FORMAT
 62
     7
100
AcDbBlockReference
  2
SW_CENTERMARKSYMBOL_0
 10
121.679492129
 20
483.9716809206
 30
0.0
  0
LINE
  5
BD
330
1F
100
AcDbEntity
  8
0
  6
Continuous
 62
     7
370
    25
100
AcDbLine
 10
243.6794934999
 20
-226.0356138385
 30
0.0
 11
148.0398809742
 21
-226.0356138385
 31
0.0
  0
LINE
  5
BE
330
1F
100
AcDbEntity
  8
0
  6
Continuous
 62
     7
370
    25
100
AcDbLine
 10
148.0398809742
 20
-406.0356209911
 30
0.0
 11
243.6794934999
 21
-406.0356209911
 31
0.0
  0
LINE
  5
BF
330
1F
100
AcDbEntity
  8
0
  6
Continuous
 62
     7
370
    25
100
AcDbLine
 10
121.679492129
 20
-406.0356209911
 30
0.0
 11
148.0398809742
 21
-406.0356209911
 31
0.0
  0
LINE
  5
C0
330
1F
100
AcDbEntity
  8
0
  6
Continuous
 62
     7
370
    25
100
AcDbLine
 10
148.0398809742
 20
-226.0356138385
 30
0.0
 11
121.679492129
 21
-226.0356138385
 31
0.0
  0
LWPOLYLINE
  5
C1
330
1F
100
AcDbEntity
  8
0
  6
Continuous
 62
     7
370
    25
100
AcDbPolyline
 90
      104
 70
   128
 43
0.0
 10
243.6794934999
 20
-406.0356209911
 10
247.5592119824
 20
-405.8682138956
 10
251.4245135914
 20
-405.3666259087
 10
255.2609814536
 20
-404.532727126
 10
259.0543849598
 20
-403.3696095384
 10
262.7905829083
 20
-401.8816019333
 10
266.4556874167
 20
-400.0742400921
 10
270.0360639226
 20
-397.9542518891
 10
273.5183907877
 20
-395.5295200384
 10
276.8897189032
 20
-392.8090671933
 10
280.1374865901
 20
-389.8030112422
 10
283.24965371
 20
-386.5225355066
 10
286.2145973574
 20
-382.9798440374
 10
289.0213204752
 20
-379.1881169117
 10
291.6593624484
 20
-375.1614543534
 10
294.1189183127
 20
-370.9148432053
 10
296.3908238541
 20
-366.4640786982
 10
298.4666599165
 20
-361.8257160223
 10
300.3386778962
 20
-357.0170107222
 10
301.9999189507
 20
-352.055851642
 10
303.4441990983
 20
-346.9606938697
 10
304.6661539208
 20
-341.750493545
 10
305.6612385642
 20
-336.4446333534
 10
306.4257426392
 20
-331.0628489516
 10
306.9568200242
 20
-325.6251628435
 10
307.2525037657
 20
-320.1518024243
 10
307.3117060792
 20
-314.6631301305
 10
307.1341736447
 20
-309.1795633472
 10
306.7206068169
 20
-303.7215017638
 10
306.0725106131
 20
-298.3092500753
 10
305.1922990214
 20
-292.9629406817
 10
304.0832651984
 20
-287.7024638391
 10
302.7495218646
 20
-282.5473884977
 10
301.1960460078
 20
-277.5168905891
 10
299.4285894763
 20
-272.6296859718
 10
297.4537534844
 20
-267.9039503372
 10
295.2788694035
 20
-263.3572707809
 10
292.9120285641
 20
-259.0065601207
 10
290.3620524537
 20
-254.8679972924
 10
287.6384033095
 20
-250.9569863714
 10
284.7512288224
 20
-247.2880671657
 10
281.7112578284
 20
-243.8748965896
 10
278.52981521
 20
-240.7301704324
 10
275.2187175881
 20
-237.8655861057
 10
271.7903031241
 20
-235.291790489
 10
268.2572974097
 20
-233.0183724798
 10
264.6328730713
 20
-231.0537884868
 10
260.9305007588
 20
-229.4053400791
 10
257.163949145
 20
-228.0791590846
 10
253.3472402226
 20
-227.0801852382
 10
249.4945598971
 20
-226.412128929
 10
245.6202579867
 20
-226.0774786509
 10
241.7387290131
 20
-226.0774786509
 10
237.8644196521
 20
-226.412128929
 10
234.0117393266
 20
-227.0801852382
 10
230.1950304042
 20
-228.0791590846
 10
226.4284787904
 20
-229.4053400791
 10
222.7261064779
 20
-231.0537884868
 10
219.1016821395
 20
-233.0183724798
 10
215.5686838757
 20
-235.291790489
 10
212.1402619611
 20
-237.8655861057
 10
208.8291717898
 20
-240.7301704324
 10
205.6477217208
 20
-243.8748965896
 10
202.6077581774
 20
-247.2880671657
 10
199.7205836903
 20
-250.9569863714
 10
196.9969345461
 20
-254.8679972924
 10
194.4469509851
 20
-259.0065601207
 10
192.0801101457
 20
-263.3572707809
 10
189.9052260648
 20
-267.9039503372
 10
187.930390073
 20
-272.6296859718
 10
186.162940992
 20
-277.5168905891
 10
184.6094576847
 20
-282.5473884977
 10
183.2757143508
 20
-287.7024638391
 10
182.1666805278
 20
-292.9629406817
 10
181.286480112
 20
-298.3092500753
 10
180.6383839082
 20
-303.7215017638
 10
180.2248059045
 20
-309.1795633472
 10
180.0472809207
 20
-314.6631301305
 10
180.1064757835
 20
-320.1518024243
 10
180.4021632504
 20
-325.6251628435
 10
180.9332480859
 20
-331.0628489516
 10
181.6977521609
 20
-336.4446333534
 10
182.692833079
 20
-341.750493545
 10
183.9147879015
 20
-346.9606938697
 10
185.3590754997
 20
-352.055851642
 10
187.0203091036
 20
-357.0170107222
 10
188.8923270833
 20
-361.8257160223
 10
190.9681556951
 20
-366.4640786982
 10
193.2400686871
 20
-370.9148432053
 10
195.6996245514
 20
-375.1614543534
 10
198.3376665246
 20
-379.1881169117
 10
201.1443896424
 20
-382.9798440374
 10
204.1093407403
 20
-386.5225355066
 10
207.2214929592
 20
-389.8030112422
 10
210.4692755472
 20
-392.8090671933
 10
213.8405962121
 20
-395.5295200384
 10
217.3229230773
 20
-397.9542518891
 10
220.9032995831
 20
-400.0742400921
 10
224.5684040915
 20
-401.8816019333
 10
228.30460204
 20
-403.3696095384
 10
232.0979980957
 20
-404.532727126
 10
235.9344808589
 20
-405.3666259087
 10
239.7997675668
 20
-405.8682138956
 10
243.6794934999
 20
-406.0356209911
  0
LWPOLYLINE
  5
C2
330
1F
100
AcDbEntity
  8
0
  6
Continuous
 62
     7
370
    25
100
AcDbPolyline
 90
       94
 70
   128
 43
0.0
 10
243.6794934999
 20
-389.635619048
 10
240.1660753619
 20
-389.467705313
 10
236.6686983239
 20
-388.9647464193
 10
233.2032991778
 20
-388.1290222443
 10
229.7857104074
 20
-386.964354936
 10
226.4315111767
 20
-385.4760493077
 10
223.1560049783
 20
-383.6709151901
 10
219.974152578
 20
-381.5571705735
 10
216.9004528057
 20
-379.14446396
 10
213.9489500057
 20
-376.4438073076
 10
211.133092476
 20
-373.4675238765
 10
208.4657399189
 20
-370.2291886247
 10
205.9590591322
 20
-366.743583504
 10
203.6244867574
 20
-363.0266080535
 10
201.4726771246
 20
-359.0952235199
 10
199.5134500991
 20
-354.9673671759
 10
197.755738927
 20
-350.6618778146
 10
196.2075678836
 20
-346.1983933038
 10
194.8760001194
 20
-341.5972835309
 10
193.767115308
 20
-336.8795423693
 10
192.8859649431
 20
-332.0666945464
 10
192.2365797888
 20
-327.1807015798
 10
191.8219102751
 20
-322.2438560724
 10
191.6438563
 20
-317.2786831082
 10
191.7032299768
 20
-312.3078386224
 10
191.999755634
 20
-307.3540034629
 10
192.532092167
 20
-302.4397793151
 10
193.2977957856
 20
-297.587590564
 10
194.2933870684
 20
-292.8195766098
 10
195.5143062603
 20
-288.1574912853
 10
196.954995228
 20
-283.6226078606
 10
198.6088825594
 20
-279.2356165982
 10
200.468413366
 20
-275.0165353454
 10
202.5251014363
 20
-270.9846164025
 10
204.7695739399
 20
-267.1582552529
 10
207.1915788781
 20
-263.5549086071
 10
209.7800744902
 20
-260.1910198963
 10
212.5232441556
 20
-257.0819373167
 10
215.4085708987
 20
-254.2418467737
 10
218.4228969943
 20
-251.6837085522
 10
221.5524537694
 20
-249.4191865361
 10
224.7829733621
 20
-247.4586258567
 10
228.0997185241
 20
-245.8109672106
 10
231.4875496756
 20
-244.4837282337
 10
234.9310068618
 20
-243.4829587973
 10
238.4143842589
 20
-242.813233558
 10
241.9217823278
 20
-242.4776072539
 10
245.437204672
 20
-242.4776072539
 10
248.9446027409
 20
-242.813233558
 10
252.4279726874
 20
-243.4829587973
 10
255.8714373242
 20
-244.4837282337
 10
259.2592610251
 20
-245.8109672106
 10
262.5760061871
 20
-247.4586258567
 10
265.8065332304
 20
-249.4191865361
 10
268.9360900055
 20
-251.6837085522
 10
271.9504161011
 20
-254.2418467737
 10
274.8357428442
 20
-257.0819373167
 10
277.5789125096
 20
-260.1910198963
 10
280.1674081217
 20
-263.5549086071
 10
282.5894130599
 20
-267.1582552529
 10
284.8338855635
 20
-270.9846164025
 10
286.8905736338
 20
-275.0165353454
 10
288.7501044404
 20
-279.2356165982
 10
290.4039843213
 20
-283.6226078606
 10
291.844673289
 20
-288.1574912853
 10
293.0655999314
 20
-292.8195766098
 10
294.0611912142
 20
-297.587590564
 10
294.8268873822
 20
-302.4397793151
 10
295.3592313658
 20
-307.3540034629
 10
295.6557495724
 20
-312.3078386224
 10
295.7151306998
 20
-317.2786831082
 10
295.5370767247
 20
-322.2438560724
 10
295.122407211
 20
-327.1807015798
 10
294.4730146061
 20
-332.0666945464
 10
293.5918642413
 20
-336.8795423693
 10
292.4829794299
 20
-341.5972835309
 10
291.1514116656
 20
-346.1983933038
 10
289.6032406222
 20
-350.6618778146
 10
287.8455294501
 20
-354.9673671759
 10
285.8863098752
 20
-359.0952235199
 10
283.7344927918
 20
-363.0266080535
 10
281.3999278676
 20
-366.743583504
 10
278.8932396304
 20
-370.2291886247
 10
276.2258870732
 20
-373.4675238765
 10
273.4100444447
 20
-376.4438073076
 10
270.4585267436
 20
-379.14446396
 10
267.3848344218
 20
-381.5571705735
 10
264.2029745709
 20
-383.6709151901
 10
260.9274758231
 20
-385.4760493077
 10
257.573284043
 20
-386.964354936
 10
254.155687822
 20
-388.1290222443
 10
250.6902886759
 20
-388.9647464193
 10
247.1929116379
 20
-389.467705313
 10
243.6794934999
 20
-389.635619048
  0
ARC
  5
C3
330
1F
100
AcDbEntity
  8
0
  6
Continuous
 62
     7
370
    25
100
AcDbCircle
 10
121.679492129
 20
-316.0356174148
 30
0.0
 40
90.00000000000003
100
AcDbArc
 50
90.0
 51
270.0
  0
ARC
  5
C4
330
1F
100
AcDbEntity
  8
0
  6
Continuous
 62
     7
370
    25
100
AcDbCircle
 10
121.679492129
 20
-316.0356174148
 30
0.0
 40
73.60000000000001
100
AcDbArc
 50
346.1689074997
 51
13.8310925003
  0
LWPOLYLINE
  5
C5
330
1F
100
AcDbEntity
  8
0
  6
Continuous
 62
     1
370
    25
100
AcDbPolyline
 90
       54
 70
   128
 43
0.0
 10
148.0398809742
 20
-226.0356138385
 10
147.0693869721
 20
-226.0460819042
 10
143.1919204276
 20
-226.297136668
 10
139.3324880134
 20
-226.8820295966
 10
135.5054469984
 20
-227.7985702194
 10
131.725035442
 20
-229.043368522
 10
128.0053163152
 20
-230.6117753423
 10
124.3601272087
 20
-232.4979717768
 10
120.8030281793
 20
-234.694931928
 10
117.3472519237
 20
-237.194482509
 10
114.0056544188
 20
-239.9873251951
 10
110.7906669583
 20
-243.0630738772
 10
107.7142486553
 20
-246.4102844632
 10
104.7878431361
 20
-250.0165144838
 10
102.0223403554
 20
-253.8683305419
 10
99.4280239772
 20
-257.9514163471
 10
97.0145480912
 20
-262.2505764402
 10
94.7908887844
 20
-266.7498218752
 10
92.7653199266
 20
-271.4324149228
 10
90.9453759175
 20
-276.2809361256
 10
89.3378256094
 20
-281.2773439027
 10
87.9486536812
 20
-286.403056506
 10
86.783025248
 20
-291.6390041745
 10
85.8452728223
 20
-296.965709228
 10
85.1388907265
 20
-302.3633540533
 10
84.6665052902
 20
-307.8118611983
 10
84.4298711251
 20
-313.2909620571
 10
84.4298711251
 20
-318.7802727725
 10
84.6665052902
 20
-324.2593736313
 10
85.1388907265
 20
-329.7078807763
 10
85.8452728223
 20
-335.1055256016
 10
86.783025248
 20
-340.432230655
 10
87.9486536812
 20
-345.6681783236
 10
89.3378256094
 20
-350.7938909269
 10
90.9453759175
 20
-355.790298704
 10
92.7653199266
 20
-360.6388199068
 10
94.7908887844
 20
-365.3214129544
 10
97.0145480912
 20
-369.8206583894
 10
99.4280239772
 20
-374.1198184825
 10
102.0223403554
 20
-378.2029042877
 10
104.7878431361
 20
-382.0547203458
 10
107.7142486553
 20
-385.6609503663
 10
110.7906669583
 20
-389.0081609524
 10
114.0056544188
 20
-392.0839096344
 10
117.3472519237
 20
-394.8767523206
 10
120.8030281793
 20
-397.3763029016
 10
124.3601272087
 20
-399.5732630528
 10
128.0053163152
 20
-401.4594594873
 10
131.725035442
 20
-403.0278663076
 10
135.5054469984
 20
-404.2726646102
 10
139.3324880134
 20
-405.1892052329
 10
143.1919204276
 20
-405.7740981615
 10
147.0693869721
 20
-406.0251529253
 10
148.0398809742
 20
-406.0356209911
  0
ARC
  5
C6
330
1F
100
AcDbEntity
  8
0
  6
Continuous
 62
     1
370
    25
100
AcDbCircle
 10
98.594813398
 20
-316.0356174148
 30
0.0
 40
101.5083633337744
100
AcDbArc
 50
343.3745633914
 51
16.6254366086
  0
INSERT
  5
D2
330
1F
100
AcDbEntity
  8
FORMAT
 62
     7
100
AcDbBlockReference
  2
SW_CENTERMARKSYMBOL_1
 10
121.679492129
 20
-316.0356174148
 30
0.0
  0
LINE
  5
D3
330
1F
100
AcDbEntity
  8
0
  6
Continuous
 62
     7
370
    25
100
AcDbLine
 10
367.8330449448
 20
-334.6948760438
 30
0.0
 11
367.8330449448
 21
-441.4337273036
 31
0.0
  0
LINE
  5
D4
330
1F
100
AcDbEntity
  8
0
  6
Continuous
 62
     7
370
    25
100
AcDbLine
 10
547.8330469218
 20
-441.4337273036
 30
0.0
 11
547.8330469218
 21
-334.6948760438
 31
0.0
  0
LINE
  5
D5
330
1F
100
AcDbEntity
  8
0
  6
Continuous
 62
     7
370
    25
100
AcDbLine
 10
466.157786084
 20
-109.8359899604
 30
0.0
 11
398.5303714683
 21
-226.9701153202
 31
0.0
  0
LINE
  5
D6
330
1F
100
AcDbEntity
  8
0
  6
Continuous
 62
     7
370
    25
100
AcDbLine
 10
554.4149411297
 20
-316.9701214456
 30
0.0
 11
622.0423570625
 21
-199.8359953255
 31
0.0
  0
SPLINE
  5
D7
330
1F
100
AcDbEntity
  8
0
  6
Continuous
 62
     7
370
    25
100
AcDbSpline
210
0.0
220
0.0
230
1.0
 70
     8
 71
     3
 72
    23
 73
    19
 74
     0
 42
0.000000001
 43
0.00000001
 40
0.0
 40
0.0
 40
0.0
 40
0.0
 40
0.0370708735499626
 40
0.1008157069807946
 40
0.1646402868366979
 40
0.2285855808807052
 40
0.2926949247063385
 40
0.3570087582140616
 40
0.4215630997560366
 40
0.4863866718687844
 40
0.5514991119122508
 40
0.6169067133102638
 40
0.6825994728429624
 40
0.7485471030152452
 40
0.8146961483160656
 40
0.8809595957907403
 40
0.9472040884070557
 40
1.0
 40
1.0
 40
1.0
 40
1.0
 10
398.5303714683362
 20
-226.9701153201784
 30
0.0
 10
397.8210678415408
 20
-228.2136644948691
 30
0.0
 10
395.8920885715203
 20
-231.5955456648085
 30
0.0
 10
392.9011001372741
 20
-237.2053953140899
 30
0.0
 10
389.6135702673392
 20
-243.819467699573
 30
0.0
 10
386.5310006541537
 20
-250.5323600358273
 30
0.0
 10
383.6550031122916
 20
-257.336604148472
 30
0.0
 10
380.9921697876257
 20
-264.2274883125937
 30
0.0
 10
378.5486493333572
 20
-271.1993588976746
 30
0.0
 10
376.331549736595
 20
-278.2462644770948
 30
0.0
 10
374.3487323568215
 20
-285.3614133658427
 30
0.0
 10
372.6087611483294
 20
-292.5368459566051
 30
0.0
 10
371.1206929418522
 20
-299.7630278866632
 30
0.0
 10
369.8945620587587
 20
-307.0283544394983
 30
0.0
 10
368.9383187475549
 20
-314.3187317197181
 30
0.0
 10
368.2679312912898
 20
-321.6155819844346
 30
0.0
 10
367.8939777290614
 20
-328.4125752240244
 30
0.0
 10
367.8517662603284
 20
-332.7646682345282
 30
0.0
 10
367.8330449447697
 20
-334.6948760438274
 30
0.0
  0
SPLINE
  5
D8
330
1F
100
AcDbEntity
  8
0
  6
Continuous
 62
     7
370
    25
100
AcDbSpline
210
0.0
220
0.0
230
1.0
 70
     8
 71
     3
 72
    21
 73
    17
 74
     0
 42
0.000000001
 43
0.00000001
 40
0.0
 40
0.0
 40
0.0
 40
0.0
 40
0.0594253897341782
 40
0.1399301030193645
 40
0.2181005001005438
 40
0.2946150906574658
 40
0.3700770727408377
 40
0.4450038965291017
 40
0.5198164786963451
 40
0.5948353873083744
 40
0.6702149489878795
 40
0.7460901147226578
 40
0.8225187213916504
 40
0.8994795313517662
 40
0.9768896182471333
 40
1.0
 40
1.0
 40
1.0
 40
1.0
 10
547.8333761940768
 20
-334.7538134977107
 30
0.0
 10
547.8332789414042
 20
-334.7521834418345
 30
0.0
 10
547.8330499386743
 20
-334.7483451180522
 30
0.0
 10
547.8569550693305
 20
-334.4218384647271
 30
0.0
 10
547.9292193792772
 20
-333.8303852121618
 30
0.0
 10
548.0676956928995
 20
-332.9801070139741
 30
0.0
 10
548.2882697096
 20
-331.8985887966569
 30
0.0
 10
548.6051921729842
 20
-330.6006357299042
 30
0.0
 10
549.0299354723512
 20
-329.1072206173199
 30
0.0
 10
549.5710417809369
 20
-327.4417879850648
 30
0.0
 10
550.2333310749327
 20
-325.6312671055286
 30
0.0
 10
551.0183156636248
 20
-323.7060587573299
 30
0.0
 10
551.9213176963241
 20
-321.6972797240036
 30
0.0
 10
552.9416354277195
 20
-319.6437058290052
 30
0.0
 10
553.7833886922281
 20
-318.0543932496203
 30
0.0
 10
554.3028816460279
 20
-317.1768577547757
 30
0.0
 10
554.4223168281524
 20
-316.9751060064972
 30
0.0
  0
LWPOLYLINE
  5
D9
330
1F
100
AcDbEntity
  8
0
  6
Continuous
 62
     7
370
    25
100
AcDbPolyline
 90
      104
 70
   128
 43
0.0
 10
394.1934330977
 20
-404.6953608117
 10
398.1915312212
 20
-402.523980404
 10
402.4114982578
 20
-400.4973457897
 10
406.8376325308
 20
-398.6229945925
 10
411.4534750372
 20
-396.9079040661
 10
416.2418548877
 20
-395.3584526968
 10
421.1849571362
 20
-393.9804053774
 10
426.2643899516
 20
-392.7788867946
 10
431.4612623262
 20
-391.7583669833
 10
436.7562393933
 20
-390.9226415573
 10
442.1296227694
 20
-390.274821825
 10
447.5614243118
 20
-389.8173165413
 10
453.0314346066
 20
-389.5518288663
 10
458.5193072625
 20
-389.4793441997
 10
464.0046326683
 20
-389.6001332224
 10
469.4669933101
 20
-389.913747334
 10
474.8860796751
 20
-390.4190156121
 10
480.2417244964
 20
-391.1140645806
 10
485.5140081197
 20
-391.9963060446
 10
490.6833164554
 20
-393.0624583796
 10
495.7304200038
 20
-394.3085556558
 10
500.6365410269
 20
-395.7299620845
 10
505.3834325734
 20
-397.3213872247
 10
509.9534305039
 20
-399.0769160169
 10
514.3295423946
 20
-400.9900114438
 10
518.4954791471
 20
-403.0535631925
 10
522.4357517944
 20
-405.2598887947
 10
526.1356965261
 20
-407.6007845694
 10
529.5815471277
 20
-410.0675431108
 10
532.7604949086
 20
-412.6509818013
 10
535.6607012142
 20
-415.3414986959
 10
538.2713889635
 20
-418.1290767044
 10
540.5828354055
 20
-421.0033524021
 10
542.5864491685
 20
-423.9536300961
 10
544.2747755287
 20
-426.968933528
 10
545.6415372398
 20
-430.0380476932
 10
546.6816424357
 20
-433.149553816
 10
547.3912241431
 20
-436.2918764908
 10
547.7676402813
 20
-439.4533323439
 10
547.8094973702
 20
-442.6221498022
 10
547.5166373592
 20
-445.786549689
 10
546.8901481636
 20
-448.9347543487
 10
545.9323583971
 20
-452.0550545559
 10
544.6468321023
 20
-455.1358429708
 10
543.038358215
 20
-458.1656628008
 10
541.112913685
 20
-461.1332351725
 10
538.8776582084
 20
-464.0275230007
 10
536.3409131536
 20
-466.8377614015
 10
533.5121154632
 20
-469.5534964698
 10
530.4017853858
 20
-472.1646221557
 10
527.0214961827
 20
-474.661428166
 10
523.3838202916
 20
-477.0346249602
 10
519.5022914607
 20
-479.2753838583
 10
515.3913486077
 20
-481.3753694508
 10
511.0662851116
 20
-483.3267688711
 10
506.5431926722
 20
-485.1223242052
 10
501.8388918332
 20
-486.7553543519
 10
496.9708886834
 20
-488.2197861008
 10
491.9572918795
 20
-489.5101716208
 10
486.8167487679
 20
-490.6217070882
 10
481.5683782128
 20
-491.5502592985
 10
476.2317179126
 20
-492.2923778321
 10
470.8266137646
 20
-492.8452980951
 10
465.3731724496
 20
-493.2069626094
 10
459.8916771387
 20
-493.3760270952
 10
454.4025295405
 20
-493.3518635121
 10
448.9261339982
 20
-493.1345631008
 10
443.482881684
 20
-492.7249303005
 10
438.0930109875
 20
-492.1244903516
 10
432.776573272
 20
-491.3354756104
 10
427.5533485804
 20
-490.3608255487
 10
422.4427639755
 20
-489.2041639435
 10
417.4638329546
 20
-487.8697943154
 10
412.6350830087
 20
-486.3626763577
 10
407.9744660611
 20
-484.6884228949
 10
403.4993341011
 20
-482.8532554037
 10
399.2263199873
 20
-480.8640081937
 10
395.1713302037
 20
-478.7280755647
 10
391.3494480539
 20
-476.4534045831
 10
387.7748842696
 20
-474.0484604866
 10
384.4609467184
 20
-471.5221848654
 10
381.4199521581
 20
-468.8839812158
 10
378.6632242616
 20
-466.1436590554
 10
376.2010093228
 20
-463.3114156748
 10
374.0424716473
 20
-460.3977848147
 10
372.1956415265
 20
-457.4136066325
 10
370.667388897
 20
-454.3699820821
 10
369.4633983148
 20
-451.2782341365
 10
368.588153151
 20
-448.1498621672
 10
368.044898713
 20
-444.9965084898
 10
367.8356633177
 20
-441.8298975362
 10
367.9612240478
 20
-438.6618160864
 10
368.4211120195
 20
-435.5040463583
 10
369.2136202855
 20
-432.3683340734
 10
370.3357985663
 20
-429.266345878
 10
371.7834743241
 20
-426.2096206814
 10
373.5512580304
 20
-423.2095301183
 10
375.632574777
 20
-420.2772359696
 10
378.0196813975
 20
-417.423643782
 10
380.703700712
 20
-414.6593709335
 10
383.6746465515
 20
-411.9947017736
 10
386.9214698563
 20
-409.4395488457
 10
390.432084359
 20
-407.0034137301
 10
394.1934330977
 20
-404.6953608117
  0
LWPOLYLINE
  5
DA
330
1F
100
AcDbEntity
  8
0
  6
Continuous
 62
     7
370
    25
100
AcDbPolyline
 90
       94
 70
   128
 43
0.0
 10
405.7899856831
 20
-411.3899081218
 10
402.3953049776
 20
-413.4867017149
 10
399.2535679248
 20
-415.7110076308
 10
396.3791199292
 20
-418.0526831334
 10
393.7850696483
 20
-420.5010403232
 10
391.4832616637
 20
-423.0449105761
 10
389.4841826382
 20
-425.6726804696
 10
387.7969692182
 20
-428.3723662958
 10
386.4293145208
 20
-431.1316497978
 10
385.3874602306
 20
-433.9379374756
 10
384.6761557709
 20
-436.7784267359
 10
384.2986517171
 20
-439.6401583558
 10
384.2566655535
 20
-442.5100727473
 10
384.5503922091
 20
-445.3750768675
 10
385.1784935216
 20
-448.2220959219
 10
386.1380982368
 20
-451.038143315
 10
387.424828351
 20
-453.8103662712
 10
389.0328188666
 20
-456.526118067
 10
390.9547283296
 20
-459.1730066922
 10
393.1817862442
 20
-461.7389556779
 10
395.7038352198
 20
-464.2122557985
 10
398.5093658742
 20
-466.5816217181
 10
401.5855757727
 20
-468.836244263
 10
404.9184286156
 20
-470.9658367552
 10
408.4927208325
 20
-472.9606795397
 10
412.2921406878
 20
-474.8116723531
 10
416.2993524087
 20
-476.5103707245
 10
420.4960761169
 20
-478.0490199532
 10
424.8631587038
 20
-479.4206021076
 10
429.3806712957
 20
-480.6188618761
 10
434.0280080347
 20
-481.6383270968
 10
438.7839637878
 20
-482.4743475344
 10
443.6268368792
 20
-483.1231085668
 10
448.5345265553
 20
-483.5816509533
 10
453.4846423028
 20
-483.8478822401
 10
458.4546013134
 20
-483.9205874051
 10
463.4217233142
 20
-483.7994349403
 10
468.3633438375
 20
-483.4849783727
 10
473.2569195877
 20
-482.9786501816
 10
478.0801180034
 20
-482.2827617985
 10
482.8109384297
 20
-481.4004914416
 10
487.4277858751
 20
-480.3358597852
 10
491.9096000863
 20
-479.0937253975
 10
496.2359293049
 20
-477.6797573682
 10
500.3870382692
 20
-476.1004094575
 10
504.3439809829
 20
-474.3628841695
 10
508.0887041069
 20
-472.4751095621
 10
511.6041233504
 20
-470.44570123
 10
514.8741992032
 20
-468.2839185853
 10
517.8840074005
 20
-465.9996241792
 10
520.6198146551
 20
-463.6032399826
 10
523.069144512
 20
-461.1057032863
 10
525.2208175196
 20
-458.5184070144
 10
527.0650134623
 20
-455.8531577156
 10
528.5933161413
 20
-453.1221132154
 10
529.7987607897
 20
-450.337740037
 10
530.6758419756
 20
-447.5127388883
 10
531.2205557482
 20
-444.6600020824
 10
531.4304207121
 20
-441.7925435869
 10
531.3044780262
 20
-438.9234473205
 10
530.8433019414
 20
-436.0658063261
 10
530.048997166
 20
-433.2326573813
 10
528.925188329
 20
-430.4369262545
 10
527.4770015407
 20
-427.691371439
 10
525.7110446368
 20
-425.0085210456
 10
523.6353729338
 20
-422.4006165372
 10
521.2594655211
 20
-419.8795534221
 10
518.5941580903
 20
-417.4568363943
 10
515.6516073729
 20
-415.1435223081
 10
512.4452463598
 20
-412.9501639126
 10
508.9897028885
 20
-410.8867689363
 10
505.3007407859
 20
-408.962753944
 10
501.3951968124
 20
-407.1868957697
 10
497.2908899478
 20
-405.5672973971
 10
493.0065442586
 20
-404.1113495142
 10
488.5617086387
 20
-402.825696346
 10
483.9766662589
 20
-401.7162016293
 10
479.272336444
 20
-400.7879284634
 10
474.4701851107
 20
-400.0451149798
 10
469.5921194008
 20
-399.4911469692
 10
464.6604033869
 20
-399.1285517996
 10
459.6975329494
 20
-398.9589870106
 10
454.726156751
 20
-398.9832251069
 10
449.7689550646
 20
-399.2011535584
 10
444.8485502112
 20
-399.6117808826
 10
439.9873906559
 20
-400.2132305621
 10
435.2076535435
 20
-401.0027608133
 10
430.5311538195
 20
-401.9767683883
 10
425.9792296429
 20
-403.1308121452
 10
421.5726396539
 20
-404.4596176103
 10
417.3315010699
 20
-405.957130962
 10
413.2751606116
 20
-407.6165144689
 10
409.4221322699
 20
-409.4302006641
 10
405.7899856831
 20
-411.3899081218
  0
LWPOLYLINE
  5
DB
330
1F
100
AcDbEntity
  8
0
  6
Continuous
 62
     7
370
    25
100
AcDbPolyline
 90
      104
 70
   128
 43
0.0
 10
480.4604613718
 20
-118.0976367978
 10
483.3222113123
 20
-119.7502107961
 10
486.4100685583
 20
-121.5332814318
 10
489.7125164835
 20
-123.4402653058
 10
493.2173061601
 20
-125.464028537
 10
496.9113773333
 20
-127.5970662265
 10
500.7809953989
 20
-129.8314477133
 10
504.8117619398
 20
-132.1588226564
 10
508.9886832146
 20
-134.5705822551
 10
513.2962228413
 20
-137.0577193264
 10
517.7183439441
 20
-139.6109864794
 10
522.238625057
 20
-142.2209022058
 10
526.8402179774
 20
-144.877738703
 10
531.5060268899
 20
-147.5716253074
 10
536.2186846587
 20
-150.2925347969
 10
540.960660829
 20
-153.0303457543
 10
545.7143064079
 20
-155.7748684166
 10
550.461961866
 20
-158.5159070374
 10
555.1859466004
 20
-161.2432537935
 10
559.8686906434
 20
-163.9467648352
 10
564.4927715417
 20
-166.6163815735
 10
569.0409920639
 20
-169.2421755463
 10
573.4964328846
 20
-171.8143788318
 10
577.8425151457
 20
-174.3234201666
 10
582.0630682869
 20
-176.7599641072
 10
586.142398534
 20
-179.1149505697
 10
590.0653382899
 20
-181.3796233422
 10
593.8172711592
 20
-183.5455445256
 10
597.3842676085
 20
-185.6046728645
 10
600.7530342584
 20
-187.549334454
 10
603.9110422996
 20
-189.3722968867
 10
606.8465558104
 20
-191.0667855963
 10
609.5486455862
 20
-192.626491833
 10
612.0072714574
 20
-194.0456201906
 10
614.2132664844
 20
-195.3188794711
 10
616.1584462761
 20
-196.4415458018
 10
617.8355589404
 20
-197.4094337274
 10
619.2383667437
 20
-198.2189433547
 10
620.3616671844
 20
-198.8670725141
 10
621.2012587485
 20
-199.3513969789
 10
621.7540357402
 20
-199.6701252154
 10
622.0179276954
 20
-199.8220633942
 10
621.9919652367
 20
-199.8066412407
 10
621.6762326578
 20
-199.6239576546
 10
621.0719258755
 20
-199.2746316566
 10
620.1812628677
 20
-198.7599940165
 10
619.0075785038
 20
-198.0819716614
 10
617.5552349826
 20
-197.2430602879
 10
615.8296323691
 20
-196.2463791141
 10
613.8371927893
 20
-195.0956739175
 10
611.5853235518
 20
-193.7951740592
 10
609.0824118796
 20
-192.3497597863
 10
606.337756421
 20
-190.7647766696
 10
603.3615725185
 20
-189.0461542363
 10
600.1649289881
 20
-187.2002721228
 10
596.7597270462
 20
-185.2339722397
 10
593.1586212841
 20
-183.1546104791
 10
589.375019668
 20
-180.9698924536
 10
585.4229939768
 20
-178.6879434555
 10
581.3172376557
 20
-176.3172902045
 10
577.0730289372
 20
-173.8666996283
 10
572.7061676212
 20
-171.3453187846
 10
568.2328855127
 20
-168.7625197284
 10
563.6698306169
 20
-166.1279268878
 10
559.0339723087
 20
-163.4513075558
 10
554.3425591857
 20
-160.7426631466
 10
549.6130426775
 20
-158.0120390831
 10
544.8630164592
 20
-155.2695932352
 10
540.1101532311
 20
-152.5255350891
 10
535.3721335962
 20
-149.790060346
 10
530.6665828398
 20
-147.0733630914
 10
526.0110050748
 20
-144.3855551914
 10
521.4227173876
 20
-141.7366161023
 10
516.9187932031
 20
-139.1364088456
 10
512.5159858937
 20
-136.5946206938
 10
508.2306728027
 20
-134.1206639341
 10
504.0787966341
 20
-131.7237910835
 10
500.0758002565
 20
-129.412880822
 10
496.2365799468
 20
-127.1965478847
 10
492.5754122914
 20
-125.0830491486
 10
489.105921259
 20
-123.0802189997
 10
485.8410110293
 20
-121.1955400602
 10
482.7928297728
 20
-119.4359853984
 10
479.9727143333
 20
-117.8081295619
 10
477.3911592759
 20
-116.3180151226
 10
475.0577595942
 20
-114.9711986884
 10
472.9812080756
 20
-113.7726915976
 10
471.1692228619
 20
-112.7269241781
 10
469.6285421804
 20
-111.8378157191
 10
468.3649032709
 20
-111.1086588874
 10
467.3830002386
 20
-110.5421684007
 10
466.6864972252
 20
-110.1404338871
 10
466.2779730909
 20
-109.9050096247
 10
466.1589503907
 20
-109.8367000978
 10
466.3298769349
 20
-109.9358170397
 10
466.7901099839
 20
-110.2019573818
 10
467.5379425905
 20
-110.6341218938
 10
468.5705930625
 20
-111.2307456058
 10
469.8842155002
 20
-111.9895578896
 10
471.4739261374
 20
-112.9077741
 10
473.3338138786
 20
-113.981961739
 10
475.4569613724
 20
-115.2081377996
 10
477.8354555478
 20
-116.5817383515
 10
480.4604613718
 20
-118.0976367978
  0
LWPOLYLINE
  5
DC
330
1F
100
AcDbEntity
  8
0
  6
Continuous
 62
     7
370
    25
100
AcDbPolyline
 90
       94
 70
   128
 43
0.0
 10
492.0570139573
 20
-124.7921841079
 10
489.6913851073
 20
-123.426063327
 10
487.5740117319
 20
-122.2032534259
 10
485.7145507275
 20
-121.1293617456
 10
484.1214946842
 20
-120.2092626366
 10
482.802108665
 20
-119.4471339467
 10
481.7623985958
 20
-118.8465056908
 10
481.0071323388
 20
-118.4100592782
 10
480.5397395939
 20
-118.1398373934
 10
480.3623645819
 20
-118.037049314
 10
480.4758028247
 20
-118.1021743205
 10
480.87954856
 20
-118.3348856471
 10
481.5717525949
 20
-118.7341599777
 10
482.549259184
 20
-119.2981588059
 10
483.8076086641
 20
-120.0242968692
 10
485.341061161
 20
-120.9092740795
 10
487.1426123956
 20
-121.9490542216
 10
489.2040503176
 20
-123.1388915608
 10
491.5159656433
 20
-124.4733551706
 10
494.0678124409
 20
-125.9463578208
 10
496.847942375
 20
-127.5511879085
 10
499.8436764883
 20
-129.2804961437
 10
503.0413377993
 20
-131.1264116992
 10
506.4263420988
 20
-133.0805216263
 10
509.9832434724
 20
-135.1338788776
 10
513.6958092095
 20
-137.2771428906
 10
517.5471092011
 20
-139.5005156087
 10
521.5195589917
 20
-141.7938697523
 10
525.5950433388
 20
-144.1467167343
 10
529.7549557261
 20
-146.5483389712
 10
533.9803234862
 20
-148.9877952051
 10
538.2518697043
 20
-151.4539197356
 10
542.5500975117
 20
-153.935468425
 10
546.8553928187
 20
-156.4211597601
 10
551.1481204623
 20
-158.8995965217
 10
555.4086874264
 20
-161.3594908768
 10
559.6176587453
 20
-163.7896096259
 10
563.7558259929
 20
-166.1788989147
 10
567.8043073811
 20
-168.5164081883
 10
571.7446346876
 20
-170.7915107252
 10
575.5588243791
 20
-172.9938230255
 10
579.2294724413
 20
-175.1132656536
 10
582.7398360385
 20
-177.1401833881
 10
586.0738941001
 20
-179.0653497876
 10
589.2164368821
 20
-180.8799519836
 10
592.1531239192
 20
-182.5757336525
 10
594.8705525136
 20
-184.1449433042
 10
597.356331492
 20
-185.5804194601
 10
599.5991128152
 20
-186.8755967397
 10
601.5886600675
 20
-188.0246123319
 10
603.3159064081
 20
-189.0221752006
 10
604.7729598396
 20
-189.8637759743
 10
605.9531822334
 20
-190.5455561595
 10
606.8511840612
 20
-191.0643781038
 10
607.4628560053
 20
-191.4179162608
 10
607.7854295446
 20
-191.6045096677
 10
607.8174163684
 20
-191.6233703185
 10
607.5586768654
 20
-191.4743550341
 10
607.0103911473
 20
-191.1581920873
 10
606.1750564149
 20
-190.676285011
 10
605.0564922263
 20
-190.0308494914
 10
603.6597930818
 20
-189.2248251605
 10
601.9913389607
 20
-188.261893858
 10
600.0587373691
 20
-187.1464461768
 10
597.8708114863
 20
-185.8835746292
 10
595.437544847
 20
-184.4790417152
 10
592.7700391947
 20
-182.9392555952
 10
589.8804525778
 20
-181.2712343562
 10
586.7819953994
 20
-179.4826037428
 10
583.4887749999
 20
-177.5815074209
 10
580.0158459536
 20
-175.5766360374
 10
576.3790353076
 20
-173.4771263125
 10
572.5949427465
 20
-171.292561149
 10
568.6808340725
 20
-169.0329081332
 10
564.6545693419
 20
-166.7084780499
 10
560.5345226049
 20
-164.3298785464
 10
556.3394860878
 20
-161.9079588142
 10
552.0886036793
 20
-159.4537711918
 10
547.8012734664
 20
-156.9785148939
 10
543.4970608065
 20
-154.4934858266
 10
539.1955876918
 20
-152.0100127073
 10
534.9165024562
 20
-149.5394274175
 10
530.679311188
 20
-147.0930284944
 10
526.5033592907
 20
-144.6819609873
 10
522.4077076765
 20
-142.3171936402
 10
518.4110168627
 20
-140.0095736452
 10
514.5315469712
 20
-137.7695954682
 10
510.7869891418
 20
-135.6074981806
 10
507.19443919
 20
-133.533116412
 10
503.7702764346
 20
-131.5559442277
 10
500.5301268199
 20
-129.6849799871
 10
497.4887733528
 20
-127.9287963112
 10
494.6601086884
 20
-126.2953666893
 10
492.0570139573
 20
-124.7921841079
  0
LWPOLYLINE
  5
DD
330
1F
100
AcDbEntity
  8
0
  6
Continuous
 62
     1
370
    25
100
AcDbPolyline
 90
       14
 70
   128
 43
0.0
 10
521.4726587689
 20
-297.956509552
 10
525.2340075076
 20
-300.2645624704
 10
528.7446220103
 20
-302.700697586
 10
531.9914453151
 20
-305.2558505138
 10
534.9623911546
 20
-307.9205196737
 10
537.6464104691
 20
-310.6847925222
 10
540.0335170896
 20
-313.5383847098
 10
542.1148338362
 20
-316.4706788585
 10
543.8826175425
 20
-319.4707694217
 10
545.3302933003
 20
-322.5274946183
 10
546.4524715811
 20
-325.6294828136
 10
547.2449798471
 20
-328.7651950986
 10
547.7048678188
 20
-331.9229648267
 10
547.8330469218
 20
-334.6948760438
  0
LWPOLYLINE
  5
DE
330
1F
100
AcDbEntity
  8
0
  6
Continuous
 62
     1
370
    25
100
AcDbPolyline
 90
       40
 70
   128
 43
0.0
 10
367.8330449448
 20
-334.6948760438
 10
367.8984515853
 20
-332.7144810842
 10
368.2748677235
 20
-329.5530252311
 10
368.9844494309
 20
-326.4107025563
 10
370.0245546268
 20
-323.2991964335
 10
371.3913163379
 20
-320.2300822683
 10
373.0796426981
 20
-317.2147788363
 10
375.0832564611
 20
-314.2645011424
 10
377.3947029031
 20
-311.3902254447
 10
380.0053906524
 20
-308.6026474361
 10
382.905596958
 20
-305.9121305416
 10
386.0845447389
 20
-303.3286918511
 10
389.5303953405
 20
-300.8619333096
 10
393.2303400722
 20
-298.521037535
 10
397.1706127195
 20
-296.3147119328
 10
401.336549472
 20
-294.2511601841
 10
405.7126613626
 20
-292.3380647571
 10
410.2826592932
 20
-290.582535965
 10
415.0295508397
 20
-288.9911108247
 10
419.9356718628
 20
-287.5697043961
 10
424.9827754112
 20
-286.3236071199
 10
430.1520837469
 20
-285.2574547849
 10
435.4243673702
 20
-284.3752133209
 10
440.7800121915
 20
-283.6801643524
 10
446.1990985565
 20
-283.1748960742
 10
451.6614591982
 20
-282.8612819626
 10
457.1467846041
 20
-282.74049294
 10
462.63465726
 20
-282.8129776066
 10
468.1046675548
 20
-283.0784652816
 10
473.5364690972
 20
-283.5359705653
 10
478.9098524733
 20
-284.1837902976
 10
484.2048295404
 20
-285.0195157236
 10
489.401701915
 20
-286.0400355349
 10
494.4811347304
 20
-287.2415541176
 10
499.4242369789
 20
-288.6196014371
 10
504.2126168294
 20
-290.1690528064
 10
508.8284593358
 20
-291.8841433328
 10
513.2545936088
 20
-293.7584945299
 10
517.4745606454
 20
-295.7851291442
 10
521.4726587689
 20
-297.956509552
  0
LWPOLYLINE
  5
DF
330
1F
100
AcDbEntity
  8
0
  6
Continuous
 62
     1
370
    25
100
AcDbPolyline
 90
       17
 70
   128
 43
0.0
 10
521.4726587689
 20
-297.956509552
 10
525.2686785588
 20
-300.1478894232
 10
528.8831745064
 20
-302.2344464534
 10
532.3027050597
 20
-304.2084211758
 10
535.5145359435
 20
-306.0624625385
 10
538.5067330143
 20
-307.7896875992
 10
541.2681616015
 20
-309.3836507172
 10
543.7885378741
 20
-310.838440127
 10
546.0585012805
 20
-312.1486345885
 10
548.0696013774
 20
-313.3093626937
 10
549.8143570994
 20
-314.3163005818
 10
551.2862725634
 20
-315.1657114749
 10
552.4798739474
 20
-315.8544304648
 10
553.3907252956
 20
-316.3799040495
 10
554.0154416893
 20
-316.7401612296
 10
554.3516892468
 20
-316.93387434
 10
554.4149411297
 20
-316.9701214456
  0
LWPOLYLINE
  5
E0
330
1F
100
AcDbEntity
  8
0
  6
Continuous
 62
     1
370
    25
100
AcDbPolyline
 90
       37
 70
   128
 43
0.0
 10
398.5303714683
 20
-226.9701153202
 10
398.6325601245
 20
-227.0294751922
 10
399.0205883781
 20
-227.2539248465
 10
399.6967420369
 20
-227.6447159654
 10
400.6585054611
 20
-228.2004037203
 10
401.9023011075
 20
-228.9189092964
 10
403.4235086279
 20
-229.7975757915
 10
405.2164579541
 20
-230.8331235458
 10
407.2744925181
 20
-232.0217170639
 10
409.5899415936
 20
-233.3589079891
 10
412.1542019551
 20
-234.8397339637
 10
414.9577326098
 20
-236.458697343
 10
417.9900995785
 20
-238.2097575941
 10
421.2400298963
 20
-240.0864096249
 10
424.6954234664
 20
-242.0816769466
 10
428.3434360367
 20
-244.1881185169
 10
432.1704884195
 20
-246.3979268457
 10
436.1623507851
 20
-248.7028549905
 10
440.3041690034
 20
-251.0943351908
 10
444.5805357673
 20
-253.5634925589
 10
448.9755459098
 20
-256.1011009736
 10
453.4728490877
 20
-258.6977595068
 10
458.055707734
 20
-261.3437859622
 10
462.7070813508
 20
-264.029350713
 10
467.4096633887
 20
-266.7444432447
 10
472.1459602711
 20
-269.4789816579
 10
476.8983546155
 20
-272.2227883335
 10
481.6491605505
 20
-274.965658373
 10
486.3807132783
 20
-277.6973808904
 10
491.0754059529
 20
-280.4077968034
 10
495.7157792423
 20
-283.0868201251
 10
500.2845595241
 20
-285.7244965141
 10
504.7647616183
 20
-288.3109956712
 10
509.1397190804
 20
-290.8367139948
 10
513.3931461049
 20
-293.2922433973
 10
517.5092316967
 20
-295.6684560971
 10
521.4726587689
 20
-297.956509552
  0
ENDSEC
  0
SECTION
  2
OBJECTS
  0
DICTIONARY
  5
C
330
0
100
AcDbDictionary
281
     1
  3
ACAD_GROUP
350
D
  3
ACAD_LAYOUT
350
1A
  3
ACAD_MLINESTYLE
350
17
  3
ACAD_PLOTSETTINGS
350
19
  3
ACAD_PLOTSTYLENAME
350
E
  3
ACAD_SCALELIST
350
47
  0
DICTIONARY
  5
D
102
{ACAD_REACTORS
330
C
102
}
330
C
100
AcDbDictionary
281
     1
  0
DICTIONARY
  5
1A
102
{ACAD_REACTORS
330
C
102
}
330
C
100
AcDbDictionary
281
     1
  3
Layout1
350
1E
  3
Layout2
350
26
  3
Model
350
22
  0
DICTIONARY
  5
17
102
{ACAD_REACTORS
330
C
102
}
330
C
100
AcDbDictionary
281
     1
  3
Standard
350
18
  0
DICTIONARY
  5
19
102
{ACAD_REACTORS
330
C
102
}
330
C
100
AcDbDictionary
281
     1
  0
ACDBDICTIONARYWDFLT
  5
E
102
{ACAD_REACTORS
330
C
102
}
330
C
100
AcDbDictionary
281
     1
  3
Normal
350
F
100
AcDbDictionaryWithDefault
340
F
  0
DICTIONARY
  5
47
102
{ACAD_REACTORS
330
C
102
}
330
C
100
AcDbDictionary
281
     1
  3
A0
350
48
  3
A1
350
49
  3
A2
350
4A
  3
A3
350
4B
  3
A4
350
4C
  3
A5
350
4D
  3
A6
350
4E
  3
A7
350
4F
  3
A8
350
50
  3
A9
350
51
  3
B0
350
52
  3
B1
350
53
  3
B2
350
54
  3
B3
350
55
  3
B4
350
56
  3
B5
350
57
  3
B6
350
58
  3
B7
350
59
  3
B8
350
5A
  3
B9
350
5B
  3
C0
350
5C
  3
C1
350
5D
  3
C2
350
5E
  3
C3
350
5F
  3
C4
350
60
  3
C5
350
61
  3
C6
350
62
  3
C7
350
63
  3
C8
350
64
  3
C9
350
65
  3
D0
350
66
  3
D1
350
67
  3
D2
350
68
  0
LAYOUT
  5
1E
102
{ACAD_REACTORS
330
1A
102
}
330
1A
100
AcDbPlotSettings
  1

  2
none_device
  4

  6

 40
0.0
 41
0.0
 42
0.0
 43
0.0
 44
0.0
 45
0.0
 46
0.0
 47
0.0
 48
0.0
 49
0.0
140
0.0
141
0.0
142
1.0
143
1.0
 70
   688
 72
     1
 73
     0
 74
     5
  7

 75
    16
147
1.0
148
0.0
149
0.0
100
AcDbLayout
  1
Layout1
 70
     1
 71
     1
 10
0.0
 20
0.0
 11
420.0
 21
297.0
 12
0.0
 22
0.0
 32
0.0
 14
1.0000000000E+20
 24
1.0000000000E+20
 34
1.0000000000E+20
 15
-1.0000000000E+20
 25
-1.0000000000E+20
 35
-1.0000000000E+20
146
0.0
 13
0.0
 23
0.0
 33
0.0
 16
1.0
 26
0.0
 36
0.0
 17
0.0
 27
1.0
 37
0.0
 76
     0
330
1B
  0
LAYOUT
  5
26
102
{ACAD_REACTORS
330
1A
102
}
330
1A
100
AcDbPlotSettings
  1

  2
none_device
  4

  6

 40
0.0
 41
0.0
 42
0.0
 43
0.0
 44
0.0
 45
0.0
 46
0.0
 47
0.0
 48
0.0
 49
0.0
140
0.0
141
0.0
142
1.0
143
1.0
 70
   688
 72
     1
 73
     0
 74
     5
  7

 75
    16
147
1.0
148
0.0
149
0.0
100
AcDbLayout
  1
Layout2
 70
     1
 71
     2
 10
0.0
 20
0.0
 11
0.0
 21
0.0
 12
0.0
 22
0.0
 32
0.0
 14
0.0
 24
0.0
 34
0.0
 15
0.0
 25
0.0
 35
0.0
146
0.0
 13
0.0
 23
0.0
 33
0.0
 16
1.0
 26
0.0
 36
0.0
 17
0.0
 27
1.0
 37
0.0
 76
     0
330
23
  0
LAYOUT
  5
22
102
{ACAD_REACTORS
330
1A
102
}
330
1A
100
AcDbPlotSettings
  1

  2
none_device
  4
Letter_(8.50_x_11.00_Inches)
  6

 40
6.35
 41
6.35
 42
6.35000508
 43
6.35000508
 44
215.9
 45
279.4
 46
0.0
 47
0.0
 48
0.0
 49
0.0
140
0.0
141
0.0
142
1.0
143
1.0
 70
  1712
 72
     1
 73
     0
 74
     0
  7

 75
     0
147
1.0
148
0.0
149
0.0
100
AcDbLayout
  1
Model
 70
     1
 71
     0
 10
0.0
 20
0.0
 11
279.4
 21
215.9
 12
0.0
 22
0.0
 32
0.0
 14
0.0
 24
0.0
 34
0.0
 15
279.4
 25
215.9
 35
0.0
146
0.0
 13
0.0
 23
0.0
 33
0.0
 16
1.0
 26
0.0
 36
0.0
 17
0.0
 27
1.0
 37
0.0
 76
     0
330
1F
331
29
  0
MLINESTYLE
  5
18
102
{ACAD_REACTORS
330
17
102
}
330
17
100
AcDbMlineStyle
  2
Standard
 70
     0
  3

 62
   256
 51
90.0
 52
90.0
 71
     2
 49
0.5
 62
   256
  6
BYLAYER
 49
-0.5
 62
   256
  6
BYLAYER
  0
ACDBPLACEHOLDER
  5
F
102
{ACAD_REACTORS
330
E
102
}
330
E
  0
SCALE
  5
48
102
{ACAD_REACTORS
330
47
102
}
330
47
100
AcDbScale
 70
     0
300
1:1
140
1.0
141
1.0
290
     1
  0
SCALE
  5
49
102
{ACAD_REACTORS
330
47
102
}
330
47
100
AcDbScale
 70
     0
300
1:2
140
1.0
141
2.0
290
     0
  0
SCALE
  5
4A
102
{ACAD_REACTORS
330
47
102
}
330
47
100
AcDbScale
 70
     0
300
1:4
140
1.0
141
4.0
290
     0
  0
SCALE
  5
4B
102
{ACAD_REACTORS
330
47
102
}
330
47
100
AcDbScale
 70
     0
300
1:5
140
1.0
141
5.0
290
     0
  0
SCALE
  5
4C
102
{ACAD_REACTORS
330
47
102
}
330
47
100
AcDbScale
 70
     0
300
1:8
140
1.0
141
8.0
290
     0
  0
SCALE
  5
4D
102
{ACAD_REACTORS
330
47
102
}
330
47
100
AcDbScale
 70
     0
300
1:10
140
1.0
141
10.0
290
     0
  0
SCALE
  5
4E
102
{ACAD_REACTORS
330
47
102
}
330
47
100
AcDbScale
 70
     0
300
1:16
140
1.0
141
16.0
290
     0
  0
SCALE
  5
4F
102
{ACAD_REACTORS
330
47
102
}
330
47
100
AcDbScale
 70
     0
300
1:20
140
1.0
141
20.0
290
     0
  0
SCALE
  5
50
102
{ACAD_REACTORS
330
47
102
}
330
47
100
AcDbScale
 70
     0
300
1:30
140
1.0
141
30.0
290
     0
  0
SCALE
  5
51
102
{ACAD_REACTORS
330
47
102
}
330
47
100
AcDbScale
 70
     0
300
1:40
140
1.0
141
40.0
290
     0
  0
SCALE
  5
52
102
{ACAD_REACTORS
330
47
102
}
330
47
100
AcDbScale
 70
     0
300
1:50
140
1.0
141
50.0
290
     0
  0
SCALE
  5
53
102
{ACAD_REACTORS
330
47
102
}
330
47
100
AcDbScale
 70
     0
300
1:100
140
1.0
141
100.0
290
     0
  0
SCALE
  5
54
102
{ACAD_REACTORS
330
47
102
}
330
47
100
AcDbScale
 70
     0
300
2:1
140
2.0
141
1.0
290
     0
  0
SCALE
  5
55
102
{ACAD_REACTORS
330
47
102
}
330
47
100
AcDbScale
 70
     0
300
4:1
140
4.0
141
1.0
290
     0
  0
SCALE
  5
56
102
{ACAD_REACTORS
330
47
102
}
330
47
100
AcDbScale
 70
     0
300
8:1
140
8.0
141
1.0
290
     0
  0
SCALE
  5
57
102
{ACAD_REACTORS
330
47
102
}
330
47
100
AcDbScale
 70
     0
300
10:1
140
10.0
141
1.0
290
     0
  0
SCALE
  5
58
102
{ACAD_REACTORS
330
47
102
}
330
47
100
AcDbScale
 70
     0
300
100:1
140
100.0
141
1.0
290
     0
  0
SCALE
  5
59
102
{ACAD_REACTORS
330
47
102
}
330
47
100
AcDbScale
 70
     0
300
1/128" = 1'-0"
140
0.0078125
141
12.0
290
     0
  0
SCALE
  5
5A
102
{ACAD_REACTORS
330
47
102
}
330
47
100
AcDbScale
 70
     0
300
1/64" = 1'-0"
140
0.015625
141
12.0
290
     0
  0
SCALE
  5
5B
102
{ACAD_REACTORS
330
47
102
}
330
47
100
AcDbScale
 70
     0
300
1/32" = 1'-0"
140
0.03125
141
12.0
290
     0
  0
SCALE
  5
5C
102
{ACAD_REACTORS
330
47
102
}
330
47
100
AcDbScale
 70
     0
300
1/16" = 1'-0"
140
0.0625
141
12.0
290
     0
  0
SCALE
  5
5D
102
{ACAD_REACTORS
330
47
102
}
330
47
100
AcDbScale
 70
     0
300
3/32" = 1'-0"
140
0.09375
141
12.0
290
     0
  0
SCALE
  5
5E
102
{ACAD_REACTORS
330
47
102
}
330
47
100
AcDbScale
 70
     0
300
1/8" = 1'-0"
140
0.125
141
12.0
290
     0
  0
SCALE
  5
5F
102
{ACAD_REACTORS
330
47
102
}
330
47
100
AcDbScale
 70
     0
300
3/16" = 1'-0"
140
0.1875
141
12.0
290
     0
  0
SCALE
  5
60
102
{ACAD_REACTORS
330
47
102
}
330
47
100
AcDbScale
 70
     0
300
1/4" = 1'-0"
140
0.25
141
12.0
290
     0
  0
SCALE
  5
61
102
{ACAD_REACTORS
330
47
102
}
330
47
100
AcDbScale
 70
     0
300
3/8" = 1'-0"
140
0.375
141
12.0
290
     0
  0
SCALE
  5
62
102
{ACAD_REACTORS
330
47
102
}
330
47
100
AcDbScale
 70
     0
300
1/2" = 1'-0"
140
0.5
141
12.0
290
     0
  0
SCALE
  5
63
102
{ACAD_REACTORS
330
47
102
}
330
47
100
AcDbScale
 70
     0
300
3/4" = 1'-0"
140
0.75
141
12.0
290
     0
  0
SCALE
  5
64
102
{ACAD_REACTORS
330
47
102
}
330
47
100
AcDbScale
 70
     0
300
1" = 1'-0"
140
1.0
141
12.0
290
     0
  0
SCALE
  5
65
102
{ACAD_REACTORS
330
47
102
}
330
47
100
AcDbScale
 70
     0
300
1-1/2" = 1'-0"
140
1.5
141
12.0
290
     0
  0
SCALE
  5
66
102
{ACAD_REACTORS
330
47
102
}
330
47
100
AcDbScale
 70
     0
300
3" = 1'-0"
140
3.0
141
12.0
290
     0
  0
SCALE
  5
67
102
{ACAD_REACTORS
330
47
102
}
330
47
100
AcDbScale
 70
     0
300
6" = 1'-0"
140
6.0
141
12.0
290
     0
  0
SCALE
  5
68
102
{ACAD_REACTORS
330
47
102
}
330
47
100
AcDbScale
 70
     0
300
1'-0" = 1'-0"
140
12.0
141
12.0
290
     0
  0
ENDSEC
  0
EOF
